Oops, an error
Loading. Please wait.

Sadness Comes Home Tab

version 1
version 1

Whole song

Interactive

6,447 views 18 this week
4 commentsread comments
1 2 3 4 5
accurate
x 5
add to favorites
launch autoscroll
font size
0
reset
how to read this tab
guitar tuner
Tab Pro tools
  • play this tab
  • loop segment
  • change instrument
  • show fretboard
  • metronome
×
Best way to learn
"Sadness Comes Home"
Autoscroll
slow
fast
+/-
esc
set tempo
stop
Tuning
C G C F A D
Not sure if this is the correct tuning, but it sounds alright and makes it pretty 
straight forward to play.

Enjoy!


Intro/outro
D|------------------------------------------------|| x2
A|-3/5--------------5------------------5----------||
F|----4-------------4------------------4----------||
C|-----5-7-7^-5--2--2----2-0-2-3-2-0-2-2----------||
G|---------------2--2----2-0-2-3-2-0-2-2----------||
C|---------------2--2----2-0-2-3-2-0-2*2----------|| *whammy bend down and back

D|------------------------------------------------|| x2
A|-3/5-----------------------------------------5--||
F|----4----------------------------------------4--||
C|-----5-7-7^-5--2/5--5/7--7-8--8-7-5-7-5-2-2--2--||
G|---------------2/5--5/7--7-8--8-7-5-7-5-2-2--2--||
C|---------------2/5--5/7--7-8--8-7-5-7-5-2-2--2--||

D|-----------------------------------------------------------------||
A|-3/5--------------5----------------------------------------------||
F|----4-------------4----------------------------------------------||
C|-----5-7-7^-5--2--2----2-0-2-3-2-0-2----1------------------------||
G|---------------2--2----2-0-2-3-2-0-2----1-Swelling feedback------||
C|---------------2--2----2-0-2-3-2-0-2----1------------------------||



fast riff x3 - Once with each tail

D|-------------------------------------------------------------------||
A|-8p0-7p0-5p0-4p0-5p0-7p0-5p0-4p0-3p0-3p0-3p0-3p0-1p0-1p0-1p0-1p0---||
F|-------------------------------------------------------------------||
C|-------------------------------------------------------------------||
G|-------------------------------------------------------------------||
C|-------------------------------------------------------------------||

fast riff tail 1
D|-----------------------------------||
A|--0--0--0--0--0--0-0--0--0--0--0---||
F|--3^-3^-3^-3^-3^-3-3^-3^-3^-3^-3^--||
C|-----------------------------------||
G|-----------------------------------||
C|-----------------------------------||

fast riff tail 2
D|-------------------------------------------------------------------------------||
A|-2/5-5-5---3-3/5-5-5---5--?/8--?/10--?/11--?/15--?/17-17---17-17---17-17---17--|| 
F|--------------------------------------------------------15------15------15-----||
C|-------------------------------------------------------------------------------||
G|-------------------------------------------------------------------------------||
C|-------------------------------------------------------------------------------||
?/ Slide from anywhere lower

fast riff tail 3
D|-----------------------------------||
A|--0--0--0--0--0--0-0---------------||
F|--2^-2^-2^-2^-2^-2-0---------------||
C|-----------------------------------||
G|-----------------------------------||
C|-----------------------------------||



BRUTALITY! 2x once with each tail
D|------------------------------------------------------------------------------------||
A|------------------------------------------------------------------------------------||
F|------------------------------------------------------------------------------------||
C|--2-----------------------2--1-----------1--0-----------3--2------------------------||
G|--2-----------------------2--1-----------1--0-----------3--2------------------------||
C|--2--2-2-2-2-2-2-2-2-2-2--2--1--1-1-1-1--1--0--0-0-0-0--3--2--2-2-2-2-2-2-2-2-2-2-2-||
      pm-----------------|       pm-----|       pm-----|       pm-------------------|

tail 1
D|---------------------||
A|-0--0--0--0--0--0-0--||
F|-2^-2^-2^-2^-2^-2-0--||
C|---------------------||
G|---------------------||
C|---------------------||

tail 2 
D|---------------------||
A|-0--slides & scrapes-||
F|-2^------------------||
C|---------------------||
G|---------------------||
C|---------------------||


fast riff +tails
BRUTALITY! +tails


Solo Rhythm x2
D|--------------------------------------------------------------------||
A|--------------------------------------------------------------------||
F|--------------------------------------------------------------------||
C|--7-7-8-7-6-6--7-7-8-7-6-6-7-7-8-7-6-6---13---------------13-12-10--||
G|--7-7-8-7-6-6--7-7-8-7-6-6-7-7-8-7-6-6---13---------------13-12-10--||
C|--7-7-8-7-6-6--7-7-8-7-6-6-7-7-8-7-6-6---13--13-13-13-13--13-12-10--||
                                               pm--------|

D|------------------------------------------------------||
A|------------------------------------------------------||
F|------------------------------------------------------||
C|--7-7-8-7-6-6--7-7-8-7-6-6-7-7-8-7-6-6--10--13--------||
G|--7-7-8-7-6-6--7-7-8-7-6-6-7-7-8-7-6-6--10--13--------||
C|--7-7-8-7-6-6--7-7-8-7-6-6-7-7-8-7-6-6--10--13--------||



Solo (probably wayyy-off here, a lot of guess work)
D|--------------------------------------------------------------||
A|----------------------------------------------15^*------------||  *whammy?
F|------?/11-?/10-?/9-?/8----14-12----14--12--------------------||
C|-13^*/---------------------------14---------14----------------||
G|--------------------------------------------------------------||
C|--------------------------------------------------------------||

D|--------------------------------------------------------------||
A|-13-12-11-10----13t--10t--13t-15t-17t--20^--------------------||  t=tremolo picking
F|---------------------------------------19^--------------------||
C|--------------------------------------------------------------||
G|--------------------------------------------------------------||
C|--------------------------------------------------------------||


fast riff

+This
D|--------------------------------------||
A|-0--0--0--0--0--0-0-------------------||
F|-2^-2^-2^-2^-2^-2-0-------------------||
C|----------------------8--8--8--7--5---||
G|----------------------8--8--8--7--5---||
C|----------------------8--8--8--7--5---||

intro/outro
comments
print report bad tab
4 comments total. Showing first comments.
-2 reply
stagepotato wrote on February 23 2013, 10:23 am, edited on January 30 2014, 07:48 pm

D|-------------------0-------------------0-------|| x2A|-3/5---------------0-------------------0-------||F|----4-0--2^-2-0------------------------------------||C|--------------2-0-2-3-2-0-2-2----------||G|---------------2------2-0-2-3-2-0-2-2----------||C|---------------2------2-0-2-3-2-0-2*2----------||
This is the correct intro.

0 reply
ianhellshredder wrote on July 17 2013, 01:06 pm

Good tab man, thanks

0 reply
thedocter17 wrote on September 8 2013, 12:36 pm

D|-------------------0--------------------0------|| x2
A|-3/5---------------0--------------------0------||
F|----4-0-2^-2-0---------------------------------||
C|----------------2------2-0-2-3-2-0-2-2---------||
G|----------------2------2-0-2-3-2-0-2-2---------||
C|----------------2------2-0-2-3-2-0-2*2---------||

sounds a little better to me

I want to post or [tab]
guest
You may want to rate the tab now too:
select rating
Please do not post tabs as comments. Select "correction" instead!