Oops, an error
Loading. Please wait.

The Saddest Day Bass Tab

version 1
version 1

Whole song

Interactive

416 views 1 this week
no commentswrite comment
1 2 3 4 5
please rate
add to favorites
launch autoscroll
font size
0
reset
guitar tuner
Tab Pro tools
  • play this tab
  • loop segment
  • change instrument
  • show fretboard
  • metronome
×
Best way to learn
"The Saddest Day"
Autoscroll
slow
fast
+/-
esc
set tempo
stop
Contributor
Difficulty
Tuning
advanced
D G C F A D
CONVERGE - THE SADDEST DAY

Just guitar, then

F|------------------------------------------------|
C|------------------------------------------------|
G|-6--6--6--6h7-6--6--6--6h7-6--6--6--6h7---------| x2
D|------------------------------------------------|

F|---------------------------------------------------------|
C|---------------------------------------------------------|
G|---------------------------------------------------------| 1,3
D|-0-7p6-0-5-0-5h6-0-7p6-0-5h6-5h6-0-7p6-0-5-0-5h6---------|

F|-----------------------------------------------------------------|
C|-----------------------------------------------------------------|
G|-----------------------------------------------------------------| 2,4
D|-0-7p6-0-5-0-5h6-0-7p6-0-5h6-5h6-0-7p6-0-5-0-5h6-3h4-0-4p3-0-3h4-|

F|----------------------|
C|----------------------|
G|----------------------| x2
D|-0----3h4-0-4p3-0-3h4-|

F|--------------------------|
C|--------------------------|
G|--------------------------|
D|-00000000-3h4-0-4p3-0-3h4-|

Just guitar, then.

F|------------------------------------------------|
C|------------------------------------------------|
G|-6--6--6--6h7-6--6--6--6h7-6--6--6--6h7---------| x4
D|------------------------------------------------|

F|-------------------------------------------------|
C|-------------------------------------------------|
G|-----------------------------------------4-3-----| x3
D|-0-0-0-0--0-0-0-0-0-0--0000-0-0-0-0--0-0-----4-3-|

F|---------------------------------------------------------|
C|---------------------------------------------------------|
G|-----------------------------------------3-2---4-3---4-5-| 
D|-0-0-0-0--0-0-0-0-0-0--0000-0-0-0-0--0-0-----3-----4-----|

F|---------------------------------|
C|---------------------------------|
G|-----------------3-2---4-3---4-5-| x4
D|-0-0-0-0-0-0-0-0-----3-----4-----|

F|---------------------------------------------------|
C|---------------------------------------------------|
G|-3-2---4-3---3-2---4-3---4-5-3-2---4-3---6--6--6-6-| x3
D|-----3-----4-----3-----4---------3-----4-----------|

F|-------------------------------------|
C|-------------------------------------|
G|-6--6-6-6-6--6-6-6-6--6-6-6-6--------|
D|-------------------------------------|

F|----------------------------------|
C|-----------------------------7----|
G|-guitar noise----------0--0-----6-|
D|----------------------------------|

F|-----------------------------------------------------|
C|-----------------------------------------------------|
G|----------------------------------------/8--7--------| x4
D|-0--0--0--0-1-0--0--0--0-1-0--0--0--0-1--------8--7--|

F|---------------------------------------------|
C|---------------------------------------------|
G|----------------6----------------2-1-----0---|
D|-0--------0----------0-------0-------0-0---1-|

F|------------------------------------------|
C|------------------------------------------|
G|----------2--1-----0--------------7--6----| 1,3
D|-0--2--3--------2-----1--0--2--3----------|

F|----------------------------------------------|
C|----------------------------------------------|
G|----------2--1-----0--------------2-1-----0---| 2,4
D|-0--2--3--------2-----1--0--2--3------0-0---1-|

F|---------------------------------------------------------|
C|---------------------------------------------------------|
G|---------------------------------------------------------| 1,3
D|-0-7p6-0-5-0-5h6-0-7p6-0-5h6-5h6-0-7p6-0-5-0-5h6---------|

F|-----------------------------------------------------------------|
C|-----------------------------------------------------------------|
G|-----------------------------------------------------------------| 2,4
D|-0-7p6-0-5-0-5h6-0-7p6-0-5h6-5h6-0-7p6-0-5-0-5h6-3h4-0-4p3-0-3h4-|

F|------------------------------------------------|
C|------------------------------------------------|
G|-1--1--1--1h2--1--1--1--1h2--1--1--1--1h2-------| x2
D|------------------------------------------------|

F|------------------------------------------------|
C|------------------------------------------------|
G|-6--6--6--6h7-6--6--6--6h7-6--6--6--6h7---------| x2
D|------------------------------------------------|

F|-----------------------|
C|-6-6-6-6-----6------6--|
G|-----------------------| 1,2,4
D|---------4-4----4-4----|

F|-----------------------|
C|-6-6-6-6---------------|
G|-------------6------5--| 3
D|---------4-4----4-4----|

F|-----------------------------------------------------|
C|---------------------6-------------------------------|
G|-------------------5---5-2p1-2p1-2p1-2p1-------------| x3
D|-0-0-0-0-4-4-4-4-4-----------------------1-1-1-3-3-3-|

F|-----------------------------------------------------|
C|---------------------6-------------------------------|
G|-------------------5---5-2p1-2p1-2p1-2p1------3------| 
D|-0-0-0-0-4-4-4-4-4-----------------------1-----------|

F|-------------------------------|
C|---let ring while guitar plays-|
G|-------------------------------|
D|-5-----------------------------|

F|-------------------------------------------------------|
C|------6--------------------------------6---------------|
G|----5---5-4-5-4-------h3-5---3-5---4-5---5-4-5-4-------|
D|-5--------------6-5-4------4-----5---------------6-5-4-|

F|-----------------------------------------------------|
C|---------------------6-------------------------------|
G|-------------------5---5-2p1-2p1-2p1-2p1-------------| x3
D|-0-0-0-0-4-4-4-4-4-----------------------1-1-1-3-3-3-|

F|-----------------------------------------------------|
C|---------------------6-------------------------------|
G|-------------------5---5-2p1-2p1-2p1-2p1------3------| 
D|-0-0-0-0-4-4-4-4-4-----------------------1-----------|

F|-------------------------------------------------|
C|-------------------------------------------------|
G|-----------------------------------------4-3-----| x3
D|-0-0-0-0--0-0-0-0-0-0--0000-0-0-0-0--0-0-----4-3-|

F|---------------------------------------------------------|
C|---------------------------------------------------------|
G|-----------------------------------------3-2---4-3---4-5-| 
D|-0-0-0-0--0-0-0-0-0-0--0000-0-0-0-0--0-0-----3-----4-----|

F|---------------------------------|
C|---------------------------------|
G|-----------------3-2---4-3---4-5-| 1,3
D|-0-0-0-0-0-0-0-0-----3-----4-----|

F|---------------------------------|
C|---------------------------------|
G|-----------------3-2---4-3---4-5-| 2,4
D|-000000000000000-----3-----4-----|

F|---------------------------------------------------|
C|---------------------------------------------------|
G|-3-2---4-3---3-2---4-3---4-5-3-2---4-3---6--6--6-6-| x4
D|-----3-----4-----3-----4---------3-----4-----------|

F|-----------------------|
C|-----------------------|
G|-3p2-------------------| x4
D|-----3--3-1-0--0-0-0-0-|

F|------------------------|
C|------------------------|
G|-3p2--------------------| x4
D|-----3--3-1-0-0-0-0-0-0-|

F|-----------------------|
C|-----------------------|
G|-3p2-------------------| x4
D|-----3--3-1-0--0-0-0-0-|

F|------------------------|
C|------------------------|
G|-3p2--------------------| x3
D|-----3--3-1-0-0-0-0-0-0-|

F|------------------|
C|------------------|
G|-3p2--------------|
D|-----3--3-1-0---0-|

comments
We did not receive enough feedback on this tab! Please rate:
print report bad tab
1 2 3 4 5
I want to post or [tab]
guest
You may want to rate the tab now too:
select rating
Please do not post tabs as comments. Select "correction" instead!