Oops, an error
Loading. Please wait.

The Saddest Day Tab

version 1
version 1

Whole song

Interactive

2,447 views 6 this week
3 commentsread comments
1 2 3 4 5
please rate
add to favorites
launch autoscroll
font size
0
reset
how to read this tab
guitar tuner
Autoscroll
slow
fast
+/-
esc
set tempo
stop
Help us to improve Ultimate-Guitar.com Take our survey!
×
Author
Band...Converge
Song...The Sadddest Day
Album..Petitioning the Empty Sky
Year...1998
Track..#1/11


Hey, this is an incredible metal-core song by a very well-known underground band,
I hope you enjoy the tab, This is The Saddest Day

 Tuning is D A D G B E

Intro
Guitar 1
e--------------------------------------------------|
B-5-5-5S6-66-5-5-5S4-44----------------------------|
G-8-8-8-9-99-8-8-8S7-77----------------------------|x3
D--------------------------------------------------|
A--------------------------------------------------|
D--------------------------------------------------|

Guitar 1 plays alone for the first time

Guitar 2
                                 1st time    2nd time
e-------------------------------|-----------|some     |
B-------------------------------|-----------|harmonic |
G-------------------------------|-----------|bend     |
D-1-1-1-1s2-1-1-1-1s2-1-1-1-1s2-|3-----3-4-5|         |
A-1-1-1-1s2-1-1-1-1s2-1-1-1-1s2-|-2-3-4-----|         | 
D-1-1-1-1s2-1-1-1-1s2-1-1-1-1s2-|-----------|         |
                  after 1st 3 after 2nd 3
e----------------|-----------|------------------|
B----------------|-----------|------------------|
G--------------X3|-----------|------------------|
D----------------|3-----3-4-5|------------------| x 2
A-0-3-2-0-1-2-3--|-2-3-4-----|4-3-0-3-2-0-2-1-0~|
D-0-3-2-0-1-2-3--|-----------|4-3-0-3-2-0-2-1-0~|

e-------------------------|------------------------
B-------------------------|------------------------
G-------------------------|------------------------
D----------------------X2-|------------------------
A-------------------------|------------------------
D-4-3-0-3-2-0-2-1-0~------|4-3-0-3-2-0-2-1-00000000

e-------------------------------|  |---------------|
B-------------------------------|  |---------------|
G-------------------------------|x5|---------------|
D-------------------------------|  |---------------|
A-00-00-0000-00-0000-00-00-000-0|  |---------------|
D-00-00-0000-00-0000-00-00-000-0|  |4-3-0-6-5-0-8-9|

e------------
B------------
G------------x a bunch of times
D------------
A-4-3-0-4-5-6
D-4-3-0-4-5-6

a bunch of open notes them some random whammy bending

e----------------------------|-----------|
B----------------------------|-----------|
G----------------------------|-----------|
D----------------------------|------6S7S6|
A-0-0-0-0-1-0-0-0-1-0-0-0-0-1|5S6S5------|
D-0-0-0-0-1-0-0-0-1-0-0-0-0-1|-----------|

Shred this part
e-----------------------------------------
B-----------------------------------------
G-----------------------------------------
D-----------------------------------------x2
A-5-7-8-12-11-7-10-8-5-7-8-12-11----------
D-----------------------------------------

then a CRAZY solo, pretty much just hit all random notes
Suggest correction
Give kudos to tab author, rate the tab!
1 2 3 4 5
comments
print report bad tab
3 comments total.
0 reply
Darklohr 35 wrote on July 11 2004, 12:00 am

This tab is wayy off...

0 reply
Darklohr 35 wrote on July 11 2004, 12:00 am

You should stick to your Poison The Well stuff... And then stick to the advice that you give others at the end of your tabbing of "Nerdy."

0 reply
nickfinn 20 wrote on April 3 2007, 06:43 am

HAHA to the comment above,
this tab is bad

guest
You may want to rate the tab now too:
select rating
Wanna post a correction for this tab? Suggest correction