Oops, an error
Loading. Please wait.

The Saddest Day Tab

version 2
version 2

Whole song

Interactive

5,139 views 3 this week
no commentswrite comment
1 2 3 4 5
1 last vote to show rating
add to favorites
launch autoscroll
font size
0
reset
how to read this tab
guitar tuner
Autoscroll
slow
fast
+/-
esc
set tempo
stop
Help us to improve Ultimate-Guitar.com Take our survey!
×
Author
-------------------------------------------------------------------------------------------------
THE SADDEST DAY - Converge
--------------------------------------------------------------------------------------------------------

By: Amir Dhillon aka PLOP

   Intro 			     Pre-Verse
E|--9-9--9/10-9/10--9-9--9-8-9-10--|--9-9--9/10-9/10--9-9--9-8-9-10--9-9--9/10-9/10--|-----------------|
B|---------------------------------|-------------------------------------------------|-----------------|
G|---------------------------------|-------------------------------------------------|--------------6--|
D|---------------------------------|-------------------------------------------------|----------6-5----|
A|---------------------------------|-------------------------------------------------|--5-4-5-6--------|
D|---------------------------------|-------------------------------------------------|-----------------|

						 	     Verse 1
E|-9-9--9/10-9/10--9-9--9-8-9-10--9-9--9/10-9/10--|--/17--|------------------------------------------------|
B|------------------------------------------------|-------|------------------------------------------------|
G|------------------------------------------------|-------|------------------------------------------------|
D|------------------------------------------------|-------|--0-7-6--5-4-3---0-7-6------------0-7-6--5-4-3--|
A|------------------------------------------------|-------|--0-7-6--5-4-3---0-7-6--4-3-4-5---0-7-6--5-4-3--|
D|------------------------------------------------|-------|--0-7-6--5-4-3---0-7-6------------0-7-6--5-4-3--|

E|-----------------|--------------------------------------------------------------|
B|-----------------|--------------------------------------------------------------|
G|--------------6--|--------------------------------------------------------------|
D|----------6-5----|--0-7-6--5-4-3---0-7-6-----------0-7-6--5-4-3--3-4--3-4--3-4--|
A|--5-4-5-6--------|--0-7-6--5-4-3---0-7-6--4-3-4-5--0-7-6--5-4-3--3-4--3-4--3-4--|
D|-----------------|--0-7-6--5-4-3---0-7-6-----------0-7-6--5-4-3--3/4--3/4--3/4--|

   Repeat Verse 1

   Bridge
E|----------------------------|----------------------------------------------|
B|----------------------(x2)--|----------------------------------------------|
G|----------------------------|----------------------------------------------|
D|--0-0--3/4--3/4--3/4--------|--0-0-0-0-0-0-0-0-0-0-0--3-4--3-4--3-4--------|
A|--0-0--3/4--3/4--3/4--------|--0-0-0-0-0-0-0-0-0-0-0--3-4--3-4--3-4--------|
D|--0-0--3/4--3/4--3/4--------|--0-0-0-0-0-0-0-0-0-0-0--3/4--3/4--3/4--------|

   Verse 2
E|--9-9--9/10-9/10--9-9--9-8-9-10--|
B|---------------------------------|
G|---------------------------------|
D|---------------------------------|
A|---------------------------------|
D|---------------------------------|

E|--9-9--9/10-9/10--9-9--9-8-9-10--9-9--9/10-9/10------------------------|
B|-----------------------------------------------------------------(x4)--|
G|--------------------------------------------------------------6--------|
D|----------------------------------------------------------6-5----------|
A|--------------------------------------------------5-4-5-6--------------|
D|-----------------------------------------------------------------------|

   Break				      Chorus
E|------------------------------------------|-----------------------------------------|
B|------------------------------------(x )--|-----------------------------------(x )--|
G|------------------------------------------|-----------------------------------------|
D|--0-0-0-0-0-0-0-0-0-0-0--8-7-8--9---------|--0-0-0-0-0-0-0--8-7-8-9--8-7-8-9--------|
A|--0-0-0-0-0-0-0-0-0-0-0--8-7-8--9---------|--0-0-0-0-0-0-0--8-7-8-9--8-7-8-9--------|
D|--0-0-0-0-0-0-0-0-0-0-0--8-7-8--9---------|--0-0-0-0-0-0-0--8-7-8-9--8-7-8-9--------|


    Bridge      Break


E|--------------------------------------------------------|-----------|----------------------|
B|--------------------------------------------------(x )--|-----------|----------------(x3)--|
G|--------------------------------------------------------|-----------|----------------------|
D|--8-7-8-9--8-7-8-9--8-7-8--8-7-8-9--8-7-8--0-0-0--------|--0-0-0-0--|--0--0--0--0-1--------|
A|--8-7-8-9--8-7-8-9--8-7-8--8-7-8-9--8-7-8--0-0-0--------|--0-0-0-0--|--0--0--0--0-1--------|
D|--8-7-8-9--8-7-8-9--8-7-8--8-7-8-9--8-7-8--0-0-0--------|--0-0-0-0--|--0--0--0--0-1--------|

E|----------------|--------|
B|--------/11-10--|--(x )--|
G|--/8-7----------|--------|
D|----------------|--------|
A|----------------|--------|
D|----------------|--------|

   Solo part
E|------------------------------------------------------------------------------|
B|------------------------------------------------------------------------(x )--|
G|-------------------------------------------------------------------6-6--------|
D|--0----------------7-7-7--6-6-6----5-5-----0----------------7-7-7--6-6--------|  solo >>>
A|--0--7-7-7--8-8-8---------------7------6---0--7-7-7--8-8-8---------4-4--------|
D|--0----------------------------------------0----------------------------------|

   Repeat Verse 1

E|-------------------------------------------------|
B|-------------------------------------------(x2)--|
G|---------------------------------------6---------| Repeat
D|--6-6-6-7-6-6-6-7-6-6-6-7----------6-5-----------| Verse 2
A|--6-6-6-7-6-6-6-7-6-6-6-7--5-4-5-6---------------|
D|--6-6-6/7-6-6-6/7-6-6-6/7------------------------|

E|--------------------|
B|--------------(x4)--|
G|--11-11-11----------|
D|--11-11-11----------|
A|--9--9--9-----------|
D|--------------------|


   Break
E|----------------------------------------------------------------|
B|----------------------------------------------------------(x )--|
G|-----------11-11-11-----11--------------------------------------|
D|--0-0-0-0--11-11-11--11---11--0-0-0-0--1-1-1-1--8-8-8-8---------|
A|--0-0-0-0--9--9--9------------0-0-0-0--1-1-1-1--8-8-8-8---------|
D|--0-0-0-0---------------------0-0-0-0--1-1-1-1--8-8-8-8---------|

E|------------------------------------------------------|
B|------------------------------------------------------|
G|-----------11-11-11-----11----------------------------|
D|--0-0-0-0--11-11-11--11----11------1--8---------------|
A|--0-0-0-0--9--9--9------------------------------1--8--|
D|--0-0-0-0----------------------7-6-7-6-7-6-7-6--1--8--|


   Repeat Break



 Bridge
E|----------------------------|-----------|
B|----------------------(x )--|-----------|
G|----------------------------|-----------| Repeat
D|--0-0-0-0----8-7-8-9--------|--8-7-8-9--| Chorus
A|--0-0-0-0----8-7-8-9--------|--8-7-8-9--|
D|--0-0-0-0----8-7-8-9--------|--8-7-8-9--|

Outro
|----------------------------------------------------||
|----------------------------------------------(x )--||
|----------------------------------------------------||
|--8-7-8--2-3--0-0-0-0-------------------------------||
|--8-7-8--2-3--0-0-0-0-------------------------------||
|--8-7-8--2-3--0-0-0-0-------------------------------||

==========================================================================================================
Suggest correction
Give kudos to tab author, rate the tab!
1 2 3 4 5
comments
print report bad tab
guest
You may want to rate the tab now too:
select rating
Wanna post a correction for this tab? Suggest correction