Oops, an error
Loading. Please wait.

You Fail Me Bass Tab

2,879 views 3 this week
no commentswrite comment
1 2 3 4 5
please rate
add to favorites
launch autoscroll
font size
0
reset
guitar tuner
Autoscroll
slow
fast
+/-
esc
set tempo
stop
Help us to improve Ultimate-Guitar.com Take our survey!
×
Author
Artist: Converge
Title: You Fail Me
Album: You Fail Me

Tuning: CGCF


*Guitar Riff ONLY* x4

Intro (0:16 | x1)
F|--------------|-----------------|
C|--------------|-----------------|
G|-5-5-5-5-5-5-5|-5-5-5-5-5-5-5-5-|
C|-0-0-0-0-0-0-0|-0-0-0-0-0-0-0-0-|

F|----------------|-----------------|
C|----------------|-----------------|
G|-R-5-5-5-5-5-5-5|-5-5-5-5-5-5-5-5-|
C|-R-0-0-0-0-0-0-0|-0-0-0-0-0-0-0-0-|  x3


Verse 1 (0:32 | x2)
F|----------------|-----------------|
C|----------------|-----------------|
G|-R-5-5-5-5-5-5-5|-5-5-5-5-5-5-5-5-|
C|-R-0-0-0-0-0-0-0|-0-0-0-0-0-0-0-0-|  x3

F|----------------|-----------------|
C|----------------|-----------------|
G|-R-5-5-5-5-5-5-5|---4-3---3-2-----|
C|-R-0-0-0-0-0-0-0|-5-----4-----3-2-|


Variation (1:05 | x1)
F|----------------|-----------------|
C|----------------|-----------------|
G|----------------|-----------------|
C|-5-5-5-5-5-5-5-5|-5-5-5-5-5-5-5-5-|

F|----------------|-----------------|
C|----------------|-----------------|
G|----------------|-----------------|
C|-4-4-4-4-4-4-4-4|\1-1-1-1-0-0-0-0-|


Verse 2 (1:13 | x2)
F|----------------|-----------------|
C|----------------|-----------------|
G|-R-5-5-5-5-5-5-5|-5-5-5-5-5-5-5-5-|
C|-R-0-0-0-0-0-0-0|-0-0-0-0-0-0-0-0-|  x3

F|----------------|-----------------|
C|----------------|-----------------|
G|-R-5-5-5-5-5-5-5|-5-----4---------|
C|-R-0-0-0-0-0-0-0|---4-3---3-2-1-0-|


Variation (1:47 | x1)
F|----------------|-----------------|
C|----------------|-----------------|
G|----------------|-----------------|
C|-5-5-5-5-5-5-5-5|-5-5-5-5-5-5-5-5-|

F|----------------|-----------------|
C|----------------|-----------------|
G|----------------|-----------------|
C|-4-4-4-4-4-4-4-4|\1-1-1-1-0-0-0-0-|


Instrumental (1:55 | x4)
F|----------------|-----------------|
C|----------------|-----------------|
G|-R-5-5-5-5-5-5-5|-5-5-5-5-5-5-5-5-|
C|-R-0-0-0-0-0-0-0|-0-0-0-0-0-0-0-0-|  x3

F|----------------|-----------------|
C|----------------|-----------------|
G|-R-5-5-5-5-5-5-5|-5-----4---------|
C|-R-0-0-0-0-0-0-0|---4-3---3-2-1-0-|


Verse 3 (3:02 | x4)
F|----------------|-----------------|
C|----------------|-----------------|
G|----------------|-----------------|
C|-3-0-0-0-6-0-0-0|-0-0-0-0-0-0-0-0-|

F|----------------|-----------------|
C|----------------|-----------------|
G|----------------|-----------------|
C|-5-0-0-0-2-0-0-0|-0-0-0-0-0-0-0-0-|

F|----------------|-----------------|
C|----------------|-----------------|
G|----------------|-----------------|
C|-3-0-0-0-6-0-0-0|-0-0-0-0-0-0-0-0-|

F|----------------|-----------------|
C|----------------|-----------------|
G|----------------|-----------------|
C|-5-0-0-0-2-0-0-0|-7-6-5-4-3-2-1-0-|


Rising Verse (4:09 | x8)
F|----------------|-----------------|
C|----------------|-----------------|
G|----------------|-----------------|
C|-R-0-0-0-0-0-0-0|-0-0-0-0-0-0-0-0-|

F|----------------|-----------------|
C|----------------|-----------------|
G|----------------|-----------------|
C|-R-0-0-0-0-0-0-0|-0-0-0-0-0-0-0-0-|


Outro (5:16 | x4)
F|----------------|-----------------|
C|----------------|-----------------|  **Let ring on last**
G|-R-5-5-5-5-5-5-5|-5-5-5-5-5-5-5-5-|    **note of song**
C|-R-0-0-0-0-0-0-0|-0-0-0-0-0-0-0-0-|




----****----
---Legend---
----****----
R = Rest
/ & \ = Slide


----****----
--Comments--
----****----
I'm a little iffy on some parts...  Converge songs are fairly
tough to figure out, especially since this is only my second
tab, but I think I got it pretty damn close.  At the very
least it sounds good enough to go along with everything else
and still sound good.

Easily my favorite Converge song.  It's incredible, they're
incredible, and they put on one hell of a live show.
Suggest correction
Give kudos to tab author, rate the tab!
1 2 3 4 5
comments
print report bad tab
guest
You may want to rate the tab now too:
select rating
Please do not post tabs as comments. Select "correction" instead!