Oops, an error
Loading. Please wait.

Jungle Boogie Bass Tab

5,912 views 6 this week
no commentswrite comment
1 2 3 4 5
please rate
add to favorites
launch autoscroll
font size
0
reset
guitar tuner
Autoscroll
slow
fast
+/-
esc
set tempo
stop
Help us to improve Ultimate-Guitar.com Take our survey!
×
Author
Difficulty
intermediate
Intro
g---11---------------------------------------------------|
d-33--1-3------------------------------------------------|PLAY 4'S
a--------------------------------------------------------|
e--------------------------------------------------------|
bridge
G---11---1----------11-0-1-------------------------------|
D-33--1-3--------1-2--3----2-1---------------------------|PLAY 2'S
A----------1-2-3---------------3-2-1---------------------|
E--------------------------------------------------------|
chorus
G--------------------------------------------------------|
D-3-3-3-3-35--3-3-3-33-----------------------------------|PLAY 4'S
A--------------------------------------------------------|
E--------------------------------------------------------|

play intro again after this then play chorus for a total of 16 times. end on the bridge.
Suggest correction
Give kudos to tab author, rate the tab!
1 2 3 4 5
comments
print report bad tab
guest
You may want to rate the tab now too:
select rating
Please do not post tabs as comments. Select "correction" instead!