Oops, an error
Loading. Please wait.

Armia Zbawienia Tab

817 views 1 this week
2 commentsread comments
1 2 3 4 5
3 more votes to show rating
add to favorites
launch autoscroll
font size
0
reset
how to read this tab
guitar tuner
Autoscroll
slow
fast
+/-
esc
set tempo
stop
Help us to improve Ultimate-Guitar.com Take our survey!
×
Author
Difficulty
intermediate
intro + zwrotki:

|-----|-----|-----|-----|-----|-----|-----|-----|
|-----|-----|-----|-----|-----|-----|-----|-----|
|-----|-----|-----|-----|-----|-----|-----|-----|
|-10--|-10--|-7---|-7---|-9---|-9---|-10--|-12--|
|-10--|-10--|-7---|-7---|-9---|-9---|-10--|-12--|
|-8---|-8---|-5---|-5---|-7---|-7---|-8---|-10--|

refren:

|-----|-----|-----|-----|
|-----|-----|-----|-----|
|-----|-----|-----|-----|
|-10--|-7---|-10--|-12--|
|-10--|-7---|-10--|-12--|
|-8---|-5---|-8---|-10--|
Suggest correction
Give kudos to tab author, rate the tab!
1 2 3 4 5
comments
print report bad tab
2 comments total.
0 reply
kupowicz 220 Oct 22, 2008 01:51 PM

i can' t find common with song. could you add some explanations how to play this?

+1 reply
bartos 217 Jul 25, 2009 07:23 AM

intro

E-------------------------------------------------------------------------------------------------------------------------------------------------------------------------------------------------------------
B------------------------------------------------------------------------------------------------------------------------------------------------------------------------------------------------------------
G-77777-9-99-7779-99-4445-52-0-2-0-2-444555774445557--1212121212-10-9-777-999-777-999-777-999-444-55-2-0-2-0-2-444455577-555-777-9---1212121212-10-999777-999
D-------------------------------------------------------------------------------------------------------------------------------------------------------------------------------------------------------------
A-------------------------------------------------------------------------------------------------------------------------------------------------------------------------------------------------------------
E-------------------------------------------------------------------------------------------------------------------------------------------------------------------------------------------------------------

zwrotka:

E--19\8--19\8 --17\5--17\5--19\7--19\7--17\8--19\10--
B-------------------------------------------------------------
G------------------------------------------------------------
D------------------------------------------------------------
A-------------------------------------------------------------
E-------------------------------------------------------------

refren

E-----------------------------------------
B-----------------------------------------
G-----------------------------------------
D-----------------------------------------
A-3-3-357-0-0-023-3-3-787-5-5-5-5-
E------------------------------------------ 2x

później

E--------------------------------------------------------------------------------------------------------
B--------------------------------------------------------------------------------------------------------
G-00000000-4444-5555------------2222-0000-444444445555777744444444---1010-1010-99
D--------------------------22222222------------------------------------------------------------------
A--------------------------------------------------------------------------------------------------------
E--------------------------------------------------------------------------------------------------------

E----------------------------------------------------------------------------------------------------------------------------------------
B----------------------------------------------------------------------------------------------------------------------------------------
G-00000000-4444-5555------------0000-2222-4444-5555-7777-9999-121212-12-10-9-777-9--9-7-5555555544447777777
D---------------------------22222222--------------------------------------------------------------------------------------------------
A----------------------------------------------------------------------------------------------------------------------------------------
E-----------------------------------------------------------------------------------------------------------------------------------------

guest
You may want to rate the tab now too:
select rating
Wanna post a correction for this tab? Suggest correction