Oops, an error
Loading. Please wait.

Generacja Nic Tab

version 1
version 1

Whole song

508 views 1 this week
1 commentread comment
1 2 3 4 5
x 3
add to favorites
launch autoscroll
font size
0
reset
how to read this tab
guitar tuner
Autoscroll
slow
fast
+/-
esc
set tempo
stop
Help us to improve Ultimate-Guitar.com Take our survey!
×
Author
(intro & chorus)riff:
E1|-----------------------------------------------|
B2|-33333---33333--- 9 9 9 9 9--- 9 9 9 9 9\77777-|
G3|-44444---44444---1010101010---1010101010\88888-|
D4|-44444---44444---1010101010---1010101010\88888-|
A5|-22222---22222--- 8 8 8 8 8--- 8 8 8 8 8\66666-|
E6|-----------------------x-----------------------|
                          p

solo/bridge:
E1|-----------------------------------------------------------|
B2|-----------------------------------------------7-----------|
G3|-9999999976666667666999999997666666766699999999-76666667666|
D4|-----------------------------------------------------------|
A5|-----------------------------------------------------------|
E6|-----------------------------------------------------------|
    bbbbbbbb bbbbbbbbbbbbbbbbbb bbbbbbbbbbbbbbbbbb bbbbbbbbbbb
b-bend
\-slide
p-pick scrape
Suggest correction
Give kudos to tab author, rate the tab!
1 2 3 4 5
comments
print report bad tab
1 comment total.
0 reply
bartos 217 Jul 25, 2009 07:22 AM

gitara riff:

E------------------------------------------------------------
H-*----------*-------------------------------------------------
G--4-4-4-4-4----7-7-7-7-7----10-10-10-10-10-9-9-9-9-9--------
D--4-4-4-4-4----7-7-5-5-5----10-10-10-10-10-9-9-7-7-7--------
A--2-2-2-2-2----5-5-5-5-5----8--8--8--8--8--7-7-7-7-7--------
E------------------------------------------------------------
[*tu grac podwojnie]

bass:

G-----------------------------------------------------------
D-----------------------------------------------------------
A-----5-5---------5-5---------8-8-----8-8-8-8-8--7-7-7-7-7--
E-//7-----7---//7-----7--//10-----10------------------------

guest
You may want to rate the tab now too:
select rating
Wanna post a correction for this tab? Suggest correction