Oops, an error
Loading. Please wait.

Love Is A Fast Song tab

version 2
version 2

Whole song

Interactive

4,287 views 6 this week
3 commentsread comments
1 2 3 4 5
1 last vote to show rating
add to favorites
×
Save as Personal and add changes to this tab that will be seen only by you. Learn more ›
×
You can save this tab as Personal to edit and correct it or add notes. All changes will be seen only by you. Learn more »
launch autoscroll
font size
0
reset
how to read this tab
guitar tuner
edit
Autoscroll
slow
fast
+/-
esc
set tempo
stop
COPELAND LYRICS
"Love Is A Fast Song"

Most of the tabs for this song were incomplete or confusing so I used a few different 
I found (and my own keen wit) to create this tab. There's a few people I should give 
to, but I'm too lazy to go find the individual tabs and put the authors on here. Sorry
guys. Thanks for the help though :)

Tuning: Drop C# (Drop D tuned down half step)

Chords used:

	C   D*  Em7	     E   D
Eb --3--5--7------x--x-------|
Bb --3--5--8------x--x-------|
Gb --5--7--7------x--x-------|
Db --5—7--9------2--0--------|
Ab --3--5--7------2--0-------|
Db --x--x--x------2--0-------|

Intro:

Riff A
Eb --------------------------------------|
Bb --------------------------------------|
Gb ------------------------5--5----------|
Db --2--5—4---------------5--5--0--------|
Ab --2---------0--2--------3--3--0-------|
Db --2---------------------------0-------|

Riff B
       | -----------full riff ------------------|
Eb ---------------------------------------------|
Bb ---------------------------------------------|
Gb -------------------------5--5----------------|
Db --2--------------0-------5--5--0-------------|
Ab --2---------0--2---------3--3--0-------------|
Db --2--5-4-----------------------0-------------|
      | --- short riff -------------------------|

Chorus Riff
Eb ---------------------------------------|
Bb ---------------------------------------|
Gb --5--------------5---------------------|
Db --5--0--2--0----5---0------------------|
Ab --3--0--2--0----3---0------------------|
Db -----0--2--0--------0------------------|


Verse 1:
Em7 G C
				Em7
You don't have to be ashamed
			G						C
'Cause you're a miracle through and through
					Em7
Oh, and you don't have to be ashamed
		G				C
Of the miracle inside of you


Pre Chorus:
			C
What has love become?
(What has love become?)
D*
It's not like we used to hear in those old songs
			C
And it's not like yours
D*
(And it's not like yours)
C					D*
What has love become? Ooooh

Ch. Riff			  C
Whoa...your love is in motion
		D*
And it's spinning me around again
Ch. Riff			 C
Whoa...my heart is in motion
		D*
For the movement that's in you

Riff B 1x

Verse 2: (same as verse 1, but go right into singing)
			     Em7
You should not be angry
		G			C
If all she wants is your money
				   Em7
Oh, you should not be angry
			G		C
'Cause all you want is her body

Pre Chorus: (same as before)

Chorus:
Ch. Riff		    C
Whoa...your love is a fast song
		D*
And I'm dancing 'cause I'm loved again
Ch. Riff	        C
Whoa...my heart is in motion
D*
For the rhythm inside you
Ch. Riff		    C
Whoa...your love is a slow song
		D*
It's resounding through my world again
Ch. Riff		C
Whoa...my heart is in motion
D*
For the song inside of you

Bridge:

Guitar 1:
Short Riff B 2x
Then:
Eb ------------------------------------------------------|
Bb ------------------------------------------------------|
Gb --5--7-------------------5--7--9-11-12- --5--7--8-----|
Db --5--7--2----------------5--7--9----------5--7--7-----|
Ab --3--5--2----------------3--5--7--9-10----3--5--6-----|
Db --------2--2-5-4-7-5----------------------------------|
	C  D*   Em			    C   D*  E* F#* G*      C    D*   D#dim

Short Riff B 2x

Guitar 2

Eb -------------------------------------------------------|
Bb -------------------------------------------------------|
Gb --------------------------------2----------------------|
Db -----0-2-4-5-4------0-2-4-5-4----4-5----4----2---------|
Ab --2---------------2------------------------------------|
Db -------------------------------------------------------|

Eb -------------------------------------------------------|
Bb ----------7-8-7-----------7-8-7--10-7-8/---------------|
Gb ----7-9---------------7-9------------------------------|
Db --9-----------------9----------------------------------|
Ab -------------------------------------------------------|
Db -------------------------------------------------------|

Eb ----14----15----14---7--------------0-------------------|
Bb –12----12----12------8---10---10---8--------------------|
Gb –11----12----11------9----7----8---9--------------------|
Db --------------------------------------------------------|
Ab --------------------------------------------------------|
Db --------------------------------------------------------|

Chorus:
Ch. Riff		    C
Whoa...your love is a fast song
		D*
And I'm dancing 'cause I'm loved again
Ch. Riff	        C
Whoa...my heart is in motion
D*
For the rhythm inside you
Ch. Riff		    C
Whoa...your love is a slow song
		D*
It's resounding through my world again
Ch. Riff		C
Whoa...my heart is in motion
D*
For the song inside of you

Riff B 4x

hope this helps
firehead257@gmail.com

            
            
Suggest correction
Creating personal tab
Creating personal tab
You can edit any tab online and save it as your Personal.

You can edit, replace or remove any tab part or add personal notes – all changes will be seen only by you.

Personal tabs can be accessed anytime from any device, even offline.
Learn more »
Give kudos to tab author, rate the tab!
1 2 3 4 5
comments
print report bad tab
3 comments total.
0 reply
thegreatindoors 41 Feb 11, 2006 06:07 AM

|----7--5-----7------|
|-8--------8---------|
|---------------7--9-|
|--------------------|
|--------------------|
|--------------------|

|----------------------------------------------|
|----------------------------------------------|
|-------0---------------------0----------0-----|
|----4--------5-----------4----------9---------|
|-5--------5-----5--7--5----------7----------9-|
|----------------------------------------------|

forgot to put in this!

0 reply
thegreatindoors 41 Feb 11, 2006 06:07 AM

that is played in the intro thing

0 reply
burn out on me 42 Oct 10, 2007 09:52 PM

Chords used:

C D* Em7 E D
Eb --3--5--7------x--x-------|
Bb --3--5--8------x--x-------|
Gb --5--7--7------x--x-------|
Db --5—7--9------2--0--------|
Ab --3--5--7------2--0-------|
Db --x--x--x------2--0-------|


you should probably clean that up to make it less confusing, and to look nicer


ALSO -

during the verse, and possibly more, you list a G chord? you have no G listed in your own tabbing, and it's in drop D...so an open/barre G sound terrible. elaborate, please?

guest
Wanna post a correction for this tab? Suggest correction