Oops, an error
Loading. Please wait.

No One Really Wins This Time solo tab

version 1
version 1

Solo

1,545 views 1 this week
1 commentread comment
1 2 3 4 5
3 more votes to show rating
add to favorites
×
Save as Personal and add changes to this tab that will be seen only by you. Learn more ›
×
You can save this tab as Personal to edit and correct it or add notes. All changes will be seen only by you. Learn more »
launch autoscroll
font size
0
reset
how to read this tab
guitar tuner
edit
Autoscroll
slow
fast
+/-
esc
set tempo
stop
Author
This is the first song off the new Copeland CD "In Motion". The CD is incredible. I
finished the tab to the solo of this song, I'm trying to work the rest of it out.

e|-------------------------------------------------------------------------|
B|-------------------------------------------------------------------------|
G|---------4-2-0-----------------------------------------------------------|
D|---------------4-4-2-0-2-2-4-----4-2-0-2-2-4-2-0-------------------------|
A|-0-2-4-5---------------------2-0-----------------------------------------|
E|-------------------------------------------------------------------------|

e|-------------------------------------------------------------------------|
B|-----------------7-5-3-5-5-7-----7-5-3-5-5-------------------------------|
G|---------4-2-9-7-------------4-2-----------------------------------------|
D|-------------------------------------------------------------------------|
A|-0-2-4-5-----------------------------------------------------------------|
E|-------------------------------------------------------------------------|

            
            
Suggest correction
Creating personal tab
Creating personal tab
You can edit any tab online and save it as your Personal.

You can edit, replace or remove any tab part or add personal notes – all changes will be seen only by you.

Personal tabs can be accessed anytime from any device, even offline.
Learn more »
Give kudos to tab author, rate the tab!
1 2 3 4 5
comments
print report bad tab
1 comment total.
0 reply
jojo0903 50 Aug 05, 2005 08:00 PM

This is mostly right, most should be able to pick up the subtle trills here and there that weren't mentioned but there is one thing that i found that should be noted. It is in the second half of the solo riff:
e|------------------------------------------------------------|
B|-------------7-9---7-5-3-5-5-7-----7-5-3-5-5-(bend)---------|
G|---------4-2-6-7---------------4-2--------------------------|
D|------------------------------------------------------------|
A|-0-2-4-5----------------------------------------------------|
E|------------------------------------------------------------|
here^^^

guest
You may want to rate the tab now too:
select rating
Wanna post a correction for this tab? Suggest correction