Oops, an error
Loading. Please wait.

Testing The Strong Ones tab

version 2
version 2

Whole song

Interactive

2,765 views 15 this week
no commentswrite comment
1 2 3 4 5
3 more votes to show rating
add to favorites
×
Save as Personal and add changes to this tab that will be seen only by you. Learn more ›
×
You can save this tab as Personal to edit and correct it or add notes. All changes will be seen only by you. Learn more »
launch autoscroll
font size
0
reset
how to read this tab
guitar tuner
edit
Autoscroll
slow
fast
+/-
esc
set tempo
stop
Author
Difficulty
Yeah ok...So Copeland is amazing, as is this song. Whatever. Hope you guys enjoy it, I'm
positive it's correct. Now...I'm procrastinating studying for Spanish, so I'd better
up lol


I'm not so brushed up on my chord names...so just bare with me. Ahh--screw it. I'll tab
out the long way...heh

A* xx2200
A  xx2220

Intro:

E|--00--00--00--00---0--------------------------------------------|
B|--00--22--00--22---3--------------------------------------------|
G|--22--22--22--22---2 [just listen to the song]------------------|
D|--22--22--22--22---0--------------------------------------------|
A|----------------------------------------------------------------|
E|----------------------------------------------------------------|


Verse:

E|--00--00--00--00---0--------------------------------------------|
B|--00--22--00--22---2--------------------------------------------|
G|--22--22--22--22---2 [just listen to the song]------------------|
D|--22--22--22--22---0--------------------------------------------|
A|-------------------0--------------------------------------------|
E|-------------------2--------------------------------------------|

"There's an angel by your hospital bed. He's desperate to hear his name on your breath.
he looks down, you're not making a sound. Open your eyes, look at me. I'll bring to you
you need...and I'll tell you that I'm sorry that I can't take this pain away from you. 
put it on my own body if I knew how to can't you see..."

Breakdown:

E|-------------------------------------------------------------------|
B|--------------0----0-----2-----------0----0---2--------------------|
G|------------2---2----2-----2-------2---2---2---2-------------------|
D|--6-------2------2-----2-----2---2-------2--2---2------------------|
A|--4-----0----------------------------------------------------------|
E|--0----------------------------2-----------------------------------|

OR you can just strum it. If you listen to the song, you should be able to pick up how
would go.

"I've gotta bust you out of here somehow. I've never seen your heart this tired, I've
seen your spirit held down."

Verse:

E|--00--00--00--00---0--------------------------------------------|
B|--00--22--00--22---2--------------------------------------------|
G|--22--22--22--22---2 [just listen to the song-------------------|
D|--22--22--22--22---0---you can pick up -------------------------|
A|-------------------0---- the different--------------------------|
E|-------------------2--------rhythm]-----------------------------|


"I know that you say that this is what you get for being a bad child. But I'm sure that
be your reward in just a little while."


Bridge:

E|--0--0--0-------------------------------------------|
B|--0--0--0-------------------------------------------|
G|--2--8--7-------------------------------------------|
D|--2--8--7-------------------------------------------|
A|--0--6--5-------------------------------------------|
E|--0--0--0-------------------------------------------|

Those are the chords, you figure out the rhythm again...

"It's testing the strong ones. Scarring the beautiful ones. Holding beloved ones one
time."

Outro:

E|--00--00--00--00------------------------------------------------|
B|--00--22--00--22------------------------------------------------|
G|--22--22--22--22------------------------------------------------|
D|--22--22--22--22------------------------------------------------|
A|----------------------------------------------------------------|
E|----------------------------------------------------------------|


Okay. The rhythm is extremely easy to pick out. Plus, I even add my own rhythms
it sound more unique. But all in all, this is a great song, and I think that tab is a very
portrayal. I hope think so as well. Rate or whatever...and Hopefully, you found this 
Thanks for viewing.

            
            
Suggest correction
Creating personal tab
Creating personal tab
You can edit any tab online and save it as your Personal.

You can edit, replace or remove any tab part or add personal notes – all changes will be seen only by you.

Personal tabs can be accessed anytime from any device, even offline.
Learn more »
Give kudos to tab author, rate the tab!
1 2 3 4 5
comments
print report bad tab
guest
You may want to rate the tab now too:
select rating
Wanna post a correction for this tab? Suggest correction