Oops, an error
Loading. Please wait.

When Finally Set Free tab

3,323 views 3 this week
2 commentsread comments
1 2 3 4 5
x 3
add to favorites
×
Save as Personal and add changes to this tab that will be seen only by you. Learn more ›
×
You can save this tab as Personal to edit and correct it or add notes. All changes will be seen only by you. Learn more »
launch autoscroll
font size
0
reset
how to read this tab
guitar tuner
edit
Autoscroll
slow
fast
+/-
esc
set tempo
stop
This isn't all of the guitar parts. But this will get you started.
If it's wrong, well, you're screwed, because this is the only tab for this song out there.

This isn't all of the guitar parts. But this will get you started.
If it's wrong, well, you're screwed, because this is the only tab for this song out there.

Intro
Bm A G

Lead part for intro
e|-------10-------------10---------------14--------12------10---------|
B|---7-8----7-8-10--7-8----7-8-10----------------------7-8----7-8-10--|
G|---------------------------------12h14-----12h14--------------------|repeat
D|--------------------------------------------------------------------|a lot
A|--------------------------------------------------------------------|of 
E|--------------------------------------------------------------------|times

Verse
	Bm	A			G
Feel the pain teaching us how much more we can take,
	Em	D		G
reminding us how far we've come.
	Bm	A			G
Let the pain burn away from our hearts.
	Em	D		G
We have time to start all over again.

Chorus
Bm			A		riff
If you will shine your love down here.
Bm			A		riff
And make our hearts as perfect as new.
Bm			A		riff
If you would shine your love down here
Bm			A		riff
I promise I'll reflect it right back at you.

riff
e|--0-00-22-00---|
B|--3-33-33-22---|
G|--0-00-22-22---|
D|--5-44-00-22---|
A|--5-55-xx-00---|
E|--x-xx-xx-xx---|



Hope this helps.
firehead257@gmail.com

            
            
Suggest correction
Creating personal tab
Creating personal tab
You can edit any tab online and save it as your Personal.

You can edit, replace or remove any tab part or add personal notes – all changes will be seen only by you.

Personal tabs can be accessed anytime from any device, even offline.
Learn more »
Give kudos to tab author, rate the tab!
1 2 3 4 5
comments
print report bad tab
2 comments total.
0 reply
luau 21 Dec 15, 2006 07:38 AM

dude, this tab is DEAD ON. thanks!

0 reply
ohhh shoot 189 May 07, 2008 09:55 PM

i think the other guitar part goes like this:

two parts
e|------part-one----------|--two---
B|-----------10-----10~--|--------
G|-----9-------9---------|--11----
D|-12~---12------12------|--------
A|-----------------------|--------
E|-----------------------|--------


or something like that

guest
Wanna post a correction for this tab? Suggest correction