Oops, an error
Loading. Please wait.

You Have My Attention Tab

28 views 1 this week
no commentswrite comment
1 2 3 4 5
3 more votes to show rating
add to favorites
launch autoscroll
font size
0
reset
how to read this tab
guitar tuner
Autoscroll
slow
fast
+/-
esc
set tempo
stop
Help us to improve Ultimate-Guitar.com Take our survey!
×
Author
Difficulty
Tuning
novice
D# G# C# F# A# D#
Acoustic Version by Ken Sañez:

[Intro]

      Hmmm  Hmmm    Hmmm    Hmmm repeat four(4) times
eb|---3-----3-------3-------3--------------------------------------------------|
Bb|---3-----3-------3-------3--------------------------------------------------|
Gb|---0-----0-------0-------2--------------------------------------------------|
Db|---2-----x-------0-------0--------------------------------------------------|
Ab|---2-----3-------x-------0--------------------------------------------------|
Eb|---0-----0-------3-------x--------------------------------------------------|


[Verse I]

      Quiet now     Your voice sings miles away
eb|---3-----3-------3----------------3-----3-----------------------------------|
Bb|---3-----3-------3----------------3-----3-----------------------------------|
Gb|---0-----0-------0----------------2-----0-----------------------------------|
Db|---2-----x-------0----------------0-----2-----------------------------------|
Ab|---2-----3-------x----------------0-----2-----------------------------------|
Eb|---0-----0-------3----------------x-----0-----------------------------------|

      But somehow I hear your song resound
eb|-------3-------3-----------3------3-----------------------------------------|
Bb|-------3-------3-----------3------3-----------------------------------------|
Gb|-------0-------0-----------2------0-----------------------------------------|
Db|-------x-------0-----------0------2-----------------------------------------|
Ab|-------3-------x-----------0------2-----------------------------------------|
Eb|-------0-------3-----------x------0-----------------------------------------|

      A little bit softer each day
eb|-------3--------3-----------3-----------------------------------------------|
Bb|-------3--------3-----------3-----------------------------------------------|
Gb|-------0--------0-----------2-----------------------------------------------|
Db|-------x--------0-----------0-----------------------------------------------|
Ab|-------3--------x-----------0-----------------------------------------------|
Eb|-------0--------3-----------x-----------------------------------------------|

      And from my tired heart, a little bit farther away
eb|-------3-------3----------------3--------3-------0(~)-----------------------|
Bb|-------3-------3----------------3--------3-------3(~)-----------------------|
Gb|-------0-------0----------------0--------2-------0(~)-----------------------|
Db|-------2-------x----------------0--------0-------x(~)-----------------------|
Ab|-------2-------3----------------x--------0-------3(~)-----------------------|
Eb|-------0-------0----------------3--------x-------0(~)-----------------------|


[Chorus]

      I'll sing along   The whole day through    Just do your best to hear me
eb|----------------0-------------------0-----------------------0---------------|
Bb|----------------3-------------------3-----------------------1---------------|
Gb|----------------0-------------------2-----------------------0---------------|
Db|----------------0-------------------0-----------------------2---------------|
Ab|----------------x-------------------0-----------------------0---------------|
Eb|----------------3-------------------x-----------------------x---------------|

      It's all you can do
eb|--------------------0(~)----------------------------------------------------|
Bb|--------------------3(~)----------------------------------------------------|
Gb|--------------------0(~)----------------------------------------------------|
Db|--------------------x(~)----------------------------------------------------|
Ab|--------------------3(~)----------------------------------------------------|
Eb|--------------------0(~)----------------------------------------------------|

[Verse II]

      You have my attention           Like you’ve had all the while
eb|---------------3---------3-------3-------------3-----------3----3---3-------|
Bb|---------------3---------3-------3-------------3-----------3----3---3-------|
Gb|---------------0---------0-------0-------------2-----------0----0---0-------|
Db|---------------2---------x-------0-------------0-----------2----x---0-------|
Ab|---------------2---------3-------x-------------0-----------2----3---x-------|
Eb|---------------0---------0-------3-------------x-----------0----0---3-------|

      Since that first day when you made my heart smile  
eb|--------------3------------------3-------------3----------------------------|
Bb|--------------3------------------3-------------3----------------------------|
Gb|--------------2------------------0-------------0----------------------------|
Db|--------------0------------------2-------------x----------------------------|
Ab|--------------0------------------2-------------3----------------------------|
Eb|--------------x------------------0-------------0----------------------------|

      With loving eyes and tired sighs that follow
eb|--------3---------------3----------------3------3---------------------------|
Bb|--------3---------------3----------------3------3---------------------------|
Gb|--------0---------------2----------------0------0---------------------------|
Db|--------0---------------0----------------2------x---------------------------|
Ab|--------x---------------0----------------2------3---------------------------|
Eb|--------3---------------x----------------0------0---------------------------|

      You have my attention          Like a shout through an empty sanctuary
eb|---3---3---------3-------3----3----------3-----3-------3------------3-------|
Bb|---3---3---------3-------3----3----------3-----3-------3------------3-------|
Gb|---0---2---------0-------0----0----------2-----0-------0------------0-------|
Db|---0---0---------2-------x----0----------0-----2-------x------------0-------|
Ab|---x---0---------2-------3----x----------0-----2-------3------------x-------|
Eb|---3---x---------0-------0----3----------x-----0-------0------------3-------|

      Speak but a whisper   I’ll hear a sermon
eb|---3-----------0(~)------------------0(~)-----------------------------------|
Bb|---3-----------3(~)------------------3(~)-----------------------------------|
Gb|---2-----------0(~)------------------0(~)-----------------------------------|
Db|---0-----------x(~)------------------0(~)-----------------------------------|
Ab|---0-----------3(~)------------------3(~)-----------------------------------|
Eb|---x-----------0(~)------------------x(~)-----------------------------------|

[Chorus]

      I'll sing along   The whole day through    Just do your best to hear me
eb|----------------0-------------------0-----------------------0---------------|
Bb|----------------3-------------------3-----------------------1---------------|
Gb|----------------0-------------------2-----------------------0---------------|
Db|----------------0-------------------0-----------------------2---------------|
Ab|----------------x-------------------0-----------------------0---------------|
Eb|----------------3-------------------x-----------------------x---------------|

      It's all you can do
eb|--------------------0(~)----------------------------------------------------|
Bb|--------------------3(~)----------------------------------------------------|
Gb|--------------------0(~)----------------------------------------------------|
Db|--------------------x(~)----------------------------------------------------|
Ab|--------------------3(~)----------------------------------------------------|
Eb|--------------------0(~)----------------------------------------------------|

      I'll sing along   The night through    While you sleep safely
eb|----------------0--------------0--------------------------0-----------------|
Bb|----------------3--------------3--------------------------1-----------------|
Gb|----------------0--------------2--------------------------0-----------------|
Db|----------------0--------------0--------------------------2-----------------|
Ab|----------------x--------------0--------------------------0-----------------|
Eb|----------------3--------------x--------------------------x-----------------|

      I'll be thinking about you     You have my attention
eb|--------------------0(~)----------------------------------------------------|
Bb|--------------------3(~)----------------------------------------------------|
Gb|--------------------0(~)----------------------------------------------------|
Db|--------------------x(~)----------------------------------------------------|
Ab|--------------------3(~)----------------------------------------------------|
Eb|--------------------0(~)----------------------------------------------------|

[Outro]

     Repeat thirteen(13) times
eb|----0---0---0-----0----------------------------------------------------------|
Bb|----3---5---7h9---3----------------------------------------------------------|
Gb|----0---0---0-----0----------------------------------------------------------|
Db|----x---x---x-----x----------------------------------------------------------|
Ab|----3---5---7-----3----------------------------------------------------------|
Eb|----0---0---0-----0----------------------------------------------------------|

     Repeat three(3) times     and end the song with this chord.
eb|----0---0--0---0(~)---------0-----------------------------------------------|
Bb|----3---5--7h9-3(~)---------3-----------------------------------------------|
Gb|----0---0--0---0(~)---------0-----------------------------------------------|
Db|----x---x--x---x(~)---------0-----------------------------------------------|
Ab|----3---5--7---3(~)---------x-----------------------------------------------|
Eb|----0---0--0---0(~)---------3-----------------------------------------------|


************************************

| x   Dead note
| ~   One(1) strum then let the notes ring
| h   hammer-on

************************************

Suggest correction
Give kudos to tab author, rate the tab!
1 2 3 4 5
comments
print report bad tab
guest
You may want to rate the tab now too:
select rating
Wanna post a correction for this tab? Suggest correction