Oops, an error
Loading. Please wait.

By Now Tab

336 views 1 this week
no commentswrite comment
1 2 3 4 5
please rate
add to favorites
launch autoscroll
font size
0
reset
how to read this tab
guitar tuner
Autoscroll
slow
fast
+/-
esc
set tempo
stop
Help us to improve Ultimate-Guitar.com Take our survey!
×
Author
luizpba 41
official website: http://www.copperlive.com

-----------------------------------------------------------------------------
                             BY NOW - Copper                               
-----------------------------------------------------------------------------

Tabbed by: luizpba  a.k.a.: Inferis
Email:luizpba@bol.com.br

Tuning: EADGBe (standard)

Intro / Verse   X 14
e|----------------------------------------------------|
B|----------------------------------------------------|
G|----------------------------------------------------|
D|---4-4-4-6-6-6-7-7-7-2-2-2-2-2-2-2------------------|
A|---4-4-4-6-6-6-7-7-7-2-2-2-2-2-2-2------------------|
E|---2-2-2-4-4-4-5-5-5-0-0-0-0-0-0-0------------------|

Interlude   X 2
e|-----------------------------|
B|-----------------------------|
G|---6--------4----------------|
D|---6--------4----------------|
A|---4--x16---2-- x16----------|
E|-----------------------------|

Pre-chorus
e|-------------------------------------------------------------------|
B|-------------------------------------------------------------------|
G|-----------6-------------------------------------------------------|
D|---7-------6-------7----------7\9-9-9-x--7\9-9-9-x--9-9-9----------|
A|---7-------4--x16--7----------7\9-9-9-x--7\9-9-9-x--9-9-9----------|
E|---5--x16----------5--x16-----5\7-7-7-x--5\7-7-7-x--7-7-7----------|
 pm........................ 

Chorus
e|----------------------------------------------------------------------|
B|----------------------------------------------------------------------|
G|----------------------------------------------------------------------|
D|---4-4-4----6-6-6----7-----------4-4-4----6-6-6----7------------------|
A|---4-4-4----6-6-6----7-----------4-4-4----6-6-6----7------------------|
E|---2-2-2----4-4-4----5--x16------2-2-2----4-4-4----5--x16-------------|

e|----------------------------------------------------------------------|
B|----------------------------------------------------------------------|
G|----------------------------------------------------------------------|
D|---4-4-4-----6-6----7------------4-4-4----6-6-6----7------------------|
A|---4-4-4-----6-6----7------------4-4-4----6-6-6----7------------------|
E|---2-2-2-----4-4----5--x16-------2-2-2----4-4-4----5--x16-------------|

Intro / Verse   X 9
e|----------------------------------------------------|
B|----------------------------------------------------|
G|----------------------------------------------------|
D|---4-4-4-6-6-6-7-7-7-2-2-2-2-2-2-2------------------|
A|---4-4-4-6-6-6-7-7-7-2-2-2-2-2-2-2------------------|
E|---2-2-2-4-4-4-5-5-5-0-0-0-0-0-0-0------------------|

Interlude   X 2
e|-----------------------------|
B|-----------------------------|
G|---6--------4----------------|
D|---6--------4----------------|
A|---4--x16---2-- x16----------|
E|-----------------------------|

Pre-chorus
e|-------------------------------------------------------------------|
B|-------------------------------------------------------------------|
G|-----------6-------------------------------------------------------|
D|---7-------6-------7----------7\9-9-9-x--7\9-9-9-x--9-9-9----------|
A|---7-------4--x16--7----------7\9-9-9-x--7\9-9-9-x--9-9-9----------|
E|---5--x16----------5--x16-----5\7-7-7-x--5\7-7-7-x--7-7-7----------|
 pm........................ 

Chorus
e|----------------------------------------------------------------------|
B|----------------------------------------------------------------------|
G|----------------------------------------------------------------------|
D|---4-4-4----6-6-6----7-----------4-4-4----6-6-6----7------------------|
A|---4-4-4----6-6-6----7-----------4-4-4----6-6-6----7------------------|
E|---2-2-2----4-4-4----5--x16------2-2-2----4-4-4----5--x16-------------|

e|----------------------------------------------------------------------|
B|----------------------------------------------------------------------|
G|----------------------------------------------------------------------|
D|---4-4-4-----6-6----7------------4-4-4----6-6-6----7------------------|
A|---4-4-4-----6-6----7------------4-4-4----6-6-6----7------------------|
E|---2-2-2-----4-4----5--x16-------2-2-2----4-4-4----5--x16-------------|

Outro
e|--------------------------------------------------------------------------|
B|--------------------------------------------------------------------------|
G|--------------------------------------------------------------------------|
D|---7-7-7-4-4-4-6-6-6-2-2-2-2-2-2-2--7-7-7-4-4-4-6-6-6-2-2-2-2-2-2-2-------|
A|---7-7-7-4-4-4-6-6-6-2-2-2-2-2-2-2--7-7-7-4-4-4-6-6-6-2-2-2-2-2-2-2-------|
E|---5-5-5-2-2-2-4-4-4-0-0-0-0-0-0-0--5-5-5-2-2-2-4-4-4-0-0-0-0-0-0-0-------|

e|----------------------------------------------------------|
B|----------------------------------------------------------|
G|----------------------------------------------------------|
D|---7-7-7-4-4-4-6-6-6-2-2-2-2-2-2-2--7-7-4-4-6-6-2-2-------|
A|---7-7-7-4-4-4-6-6-6-2-2-2-2-2-2-2--7-7-4-4-6-6-2-2-------|
E|---5-5-5-2-2-2-4-4-4-0-0-0-0-0-0-0--5-5-2-2-4-4-0-0-------|

That's it! Have fun! Great song, easy to play.
Please rate it.
Any comments, corrections... please e-mail me.


| /  slide up
| \  slide down
| h  hammer-on
| p  pull-off
| ~  vibrato
| +  harmonic
| x  Mute note
=============================================================================
Suggest correction new What's this?
You can suggest a correction to this tab. Community and Mods will review your correction and vote to approve or reject it.
comments
We did not receive enough feedback on this tab! Please rate:
print report bad tab
1 2 3 4 5
guest
You may want to rate the tab now too:
select rating
Please do not post tabs as comments. Select "correction" instead!