Oops, an error
Loading. Please wait.

Rabbit Season tab

7 views 1 this week
no commentswrite comment
1 2 3 4 5
3 more votes to show rating
add to favorites
×
Save as Personal and add changes to this tab that will be seen only by you. Learn more ›
×
You can save this tab as Personal to edit and correct it or add notes. All changes will be seen only by you. Learn more »
launch autoscroll
font size
0
reset
how to read this tab
guitar tuner
edit
Autoscroll
slow
fast
+/-
esc
set tempo
stop
Author
Difficulty
Rabbit Season by Coquette
From "The Mandrill EP" - 2013
http://bandnamedcoquette.bandcamp.com/track/rabbit-season

******************************************************************

Standard tuning save the the 6th E string dropped down to B.

[Chorus]

Guitar:
e|------------------------------------------------------------------------------|
B|------------------------------------------------------------------------------|
G|---------------------------------------------------<7>------------------|
D|------------------0<5>-----------------------------<7>------------|
A|--------0-------------------------------0---------0---------------------------|
B|0---------7-6-5---------0-6-5---0---------7-6-5---------0-6-5-----------------|

Bass:
G|----------------------------------------------------------------|
D|------------------0--------------------------------0------------|
A|2-------0---------------2-------2-------0---------------2-------|
E|----------2-1-0-----------1-0-------------2-1-0-----------1-0---|
---
Guitar:
e|------------------------------------------------------------------------------|
B|---------------------------------------------------<5>------------------|
G|-------------------<5>-----------------------------<5>------------|
D|-------------------<5>-----------------------------<5>------------|
A|--------0---------0---------------------0---------0---------------------------|
B|0---------7-6-5---------0-6-5---0---------7-6-5---------0-6-5-----------------|

Bass:
G|----------------------------------------------------------------|
D|------------------0--------------------------------0------------|
A|2-------0---------------2-------2-------0---------------2-------|
E|----------2-1-0-----------1-0-------------2-1-0-----------1-0---|
---

[Verse]

Bass:
G|----------------------------------------------------------------|
D|----------------------------------------------------------------|
A|--------------6---6---------------------------6---6-------------|
E|7-----7-6-5-------------7-------7-----7-6-5-------------7-------|
---
G|----------------------------------------------------------------|
D|----------------------------------------------------------------|
A|--------------6---6---------------------------6---6-------------|
E|7-----7-6-5-------------7-------7-----7-6-5-------------7-------|
---
Guitar:
e|----------------------------------------------------------------|
B|--------------7---7---------------------------7---7-------------|
G|8-----8-7-6-------------8-------8-----8-7-6-------------8-------|
D|----------------------------------------------------------------|
A|----------------------------------------------------------------|
B|----------------------------------------------------------------|

Bass:
G|----------------------------------------------------------------|
D|----------------------------------------------------------------|
A|--------------6---6---------------------------6---6-------------|
E|7-----7-6-5-------------7-------7-----7-6-5-------------7-------|
---
Guitar:
e|----------------------------------------------11--11------------|
B|--------------10--10------------12----121110------------12------|
G|11----11109-------------11--------------------------------------|
D|----------------------------------------------------------------|
A|----------------------------------------------------------------|
B|-----------------------------------------------------------/14\-|

Bass:
G|----------------------------------------------------------------|
D|----------------------------------------------------------------|
A|--------------6---6---------------------------6---6-------------|
E|7-----7-6-5-------------7-------7-----7-6-5-------------7-------|
---

[Chorus]

Guitar:
e|------------------------------------------------------------------------------|
B|------------------------------------------------------------------------------|
G|---------------------------------------------------<7>------------------|
D|------------------0<5>-----------------------------<7>------------|
A|--------0-------------------------------0---------0---------------------------|
B|0---------7-6-5---------0-6-5---0---------7-6-5---------0-6-5-----------------|

Bass:
G|----------------------------------------------------------------|
D|------------------0--------------------------------0------------|
A|2-------0---------------2-------2-------0---------------2-------|
E|----------2-1-0-----------1-0-------------2-1-0-----------1-0---|
---
Guitar:
e|------------------------------------------------------------------------------|
B|---------------------------------------------------<5>------------------|
G|-------------------<5>-----------------------------<5>------------|
D|-------------------<5>-----------------------------<5>------------|
A|--------0---------0---------------------0---------0---------------------------|
B|0---------7-6-5---------0-6-5---0---------7-6-5---------0-6-5-----------------|

Bass:
G|----------------------------------------------------------------|
D|------------------0--------------------------------0------------|
A|2-------0---------------2-------2-------0---------------2-------|
E|----------2-1-0-----------1-0-------------2-1-0-----------1-0---|
---

[Breakdown]

Guitar:
e|----------------------------------------------------------------|
B|----------------------------------------------------------------|
G|----------------------------------------------------------------|
D|----------------------------------------------------------------|
A|----------------------------------------------------------------|
B|12--11--10--9---8---7---6---5-----------------------------------|

Bass:
G|----------------------------------------------------------------|
D|----------------------------------------------------------------|
A|----------------------------------------------------------------|
E|7---6---5---4---3---2---1---0-----------------------------------|
---
Guitar:
e|----------------------------------------------------------------|
B|----------------------------------------------------------------|
G|----------------------------------------------------------------|
D|----------------------------------------------------------------|
A|14--13--12--11--10--9---8---7-----------------------------------|
B|----------------------------------------------------------------|

Bass:
G|----------------------------------------------------------------|
D|----------------------------------------------------------------|
A|----------------------------------------------------------------|
E|7---6---5---4---3---2---1---0-----------------------------------|
---
Guitar:
e|----------------------------------------------------------------|
B|----------------------------------------------------------------|
G|----------------------------------------------------------------|
D|13--12--11--10--9---8---7---6-b-brb-brb-brb--brb--brb--brb--brb-|
A|----------------------------------------------------------------|
B|----------------------------------------------------------------|

Bass:
G|----------------------------------------------------------------|
D|----------------------------------------------------------------|
A|----------------------------------------------------------------|
E|7---6---5---4---3---2---1---0-----------------------------------|
---
Guitar:
e|------------------------------------------------------------------------------------------|
B|------------------------------------------------------------------------------------------|
G|-------------------------------<7>---<7>---<7>---<7>---<7>--|
D|13TR----11TR----9TR-----8TR---------------------------------------------------------------|
A|------------------------------------------------------------------------------------------|
B|------------------------------------------------------------------------------------------|

Bass:
G|----------------------------------------------------------------|
D|----------------------------------------------------------------|
A|----------------------------------------------------------------|
E|7---6---5---4---3---2---1---0-----------------------------------|
---

[Solo]

Guitar:
e|----------------------------11------------------------------11--|
B|1012121012121012121012121012----1012121012121012121012121012----|
G|----------------------------------------------------------------|
D|----------------------------------------------------------------|
A|----------------------------------------------------------------|
B|----------------------------------------------------------------|

Bass (Jam):
G|----------------------------------------------------------------|
D|----------------------------------------------------------------|
A|----------------------------------------------------------------|
E|5-----5-5-----5---7-----7-------5-----5-5-----5---7-----7-------|
---
Guitar:
e|------------111211----------111211------111211------111211------|
B|101212101212--------121012--------121012------121012------------|
G|----------------------------------------------------------------|
D|----------------------------------------------------------------|
A|----------------------------------------------------------------|
B|----------------------------------------------------------------|

Bass (Jam):
G|----------------------------------------------------------------|
D|----------------------------------------------------------------|
A|----------------------------------------------------------------|
E|5-----5-5-----5---7-----7-------5-----5-5-----5---7-----7-------|
---
Guitar:
e|111214121112141614121412111211--11------------------------------|
B|------------------------------14--141214121012109-109---9-------|
G|------------------------------------------------------11--119-11|
D|----------------------------------------------------------------|
A|----------------------------------------------------------------|
B|----------------------------------------------------------------|

Bass (Jam):
G|----------------------------------------------------------------|
D|----------------------------------------------------------------|
A|----------------------------------------------------------------|
E|5-----5-5-----5---7-----7-------5-----5-5-----5---7-----7-------|
---
Guitar:
e|----------------------------------------------------------------|
B|----------------------------------------------------------------|
G|9-8-9-8---8-----------------------------------------------------|
D|--------11--119-119-7-9-7-6-7-6---6-----------------------------|
A|--------------------------------9---9-7-9-7-6-7-6-4-4h6p2-------|
B|----------------------------------------------------------------|

Bass (Jam):
G|----------------------------------------------------------------|
D|----------------------------------------------------------------|
A|----------------------------------------------------------------|
E|5-----5-5-----5---7-----7-------5-----5-5-----5---7-----7-------|
---

[Bridge]

Guitar:
e|----------------------------------------------------------------|
B|----------------------------------------------------------------|
G|8---8---9---9---11--11------------------------------------------|
D|------------------------8---8---7---7-----------6---6---8---8---|
A|----------------------------------------7---7-------------------|
B|----------------------------------------------------------------|

Bass:
G|----------------------------------------------------------------|
D|9---9---11--11--7---7-----------7---7---9---9---11--11----------|
A|------------------------9---9---------------------------9---9---|
E|----------------------------------------------------------------|
---
Guitar:
e|----------------------------------------------------------------|
B|----------------------------------------------------------------|
G|8---8---9---9---11--11------------------------------------------|
D|------------------------8---8---7---7-----------6---6---8---8---|
A|----------------------------------------7---7-------------------|
B|----------------------------------------------------------------|

Bass:
G|----------------------------------------------------------------|
D|9---9---11--11--7---7-----------7---7---9---9---11--11----------|
A|------------------------9---9---------------------------9---9---|
E|----------------------------------------------------------------|
---
Guitar:
e|----------------------------------------------------------------|
B|----------------------------------------------------------------|
G|8---8---9---9---11--11------------------------------------------|
D|------------------------8---8---7---7-----------6---6---8---8---|
A|----------------------------------------7---7-------------------|
B|----------------------------------------------------------------|

Bass:
G|----------------------------------------------------------------|
D|9---9---11--11--7---7-----------7---7---9---9---11--11----------|
A|------------------------9---9---------------------------9---9---|
E|----------------------------------------------------------------|
---
Guitar:
e|----------------------------------------------------------------|
B|----------------------------------------------------------------|
G|8---8---9---9---11--11------------------------------------------|
D|------------------------8---8---7---7-----------6---6---8---8---|
A|----------------------------------------7---7-------------------|
B|----------------------------------------------------------------|

Bass:
G|----------------------------------------------------------------|
D|9---9---11--11--7---7-----------7---7---9---9---11--11----------|
A|------------------------9---9---------------------------9---9---|
E|----------------------------------------------------------------|
---
Guitar:
e|----------------------------------------------------------------|
B|----------------------------------------------------------------|
G|----------------------------------------------------------------|
D|----------------------------------------------------------------|
A|----------------------------------------------------------------|
B|0---------------------------------------------------------------|

Bass:
G|----------------------------------------------------------------|
D|----------------------------------------------------------------|
A|----------------------------------------------------------------|
E|7---------------------------------------------------------------|
---

[Chorus]

Guitar:
e|------------------------------------------------------------------------------|
B|---------------------------------------------------<5>------------------|
G|---------------------------------------------------<5>------------------|
D|------------------0<5>-----------------------------<5>------------|
A|--------0-------------------------------0---------0---------------------------|
B|0---------7-6-5---------0-6-5---0---------7-6-5---------0-6-5-----------------|

Bass:
G|----------------------------------------------------------------|
D|------------------0--------------------------------0------------|
A|2-------0---------------2-------2-------0---------------2-------|
E|----------2-1-0-----------1-0-------------2-1-0-----------1-0---|
---
Guitar:
e|------------------------------------------------------------------------------|
B|-------------------<5>-----------------------------<5>------------|
G|-------------------<5>-----------------------------<5>------------|
D|-------------------<5>-----------------------------<5>------------|
A|--------0---------0---------------------0---------0---------------------------|
B|0---------7-6-5---------0-6-5---0---------7-6-5---------0-6-5-----------------|

Bass:
G|----------------------------------------------------------------|
D|------------------0--------------------------------0------------|
A|2-------0---------------2-------2-------0---------------2-------|
E|----------2-1-0-----------1-0-------------2-1-0-----------1-0---|
---
Guitar:
e|------------------------------------------------------------------------------|
B|------------------------------------------------------------------------------|
G|---------------------------------------------------<7>------------------|
D|------------------0<5>-----------------------------<7>------------|
A|--------0-------------------------------0---------0---------------------------|
B|0---------7-6-5---------0-6-5---0---------7-6-5---------0-6-5-----------------|

Bass:
G|----------------------------------------------------------------|
D|------------------0--------------------------------0------------|
A|2-------0---------------2-------2-------0---------------2-------|
E|----------2-1-0-----------1-0-------------2-1-0-----------1-0---|
---
Guitar:
e|------------------------------------------------------------------------------|
B|-------------------<5>-----------------------------<5>------------|
G|-------------------<5>-----------------------------<5>------------|
D|-------------------<5>-----------------------------<5>------------|
A|--------0---------0---------------------0---------0---------------------------|
B|0---------7-6-5---------0-6-5---0---------7-6-5---------0-6-5-----------------|

Bass:
G|----------------------------------------------------------------|
D|------------------0--------------------------------0------------|
A|2-------0---------------2-------2-------0---------------2-------|
E|----------2-1-0-----------1-0-------------2-1-0-----------1-0---|
---
Guitar:
e|------------------------1----/----------------------------------|
B|------------------------3----/----------------------------------|
G|------------------------2----/----------------------------------|
D|------------------------1----/----------------------------------|
A|------------------------3----/----------------------------------|
B|---------0--------------1----/----------------------------------|

Bass:
G|----------------------------------------------------------------|
D|----------------------------------------------------------------|
A|----------------------------------------------------------------|
E|---------7--------------1////13---------------------------------|

*******************************************************************

LYRICS:

If you wanna eat a rabbit, then you gotta catch it first
If you wanna break a habit, then you gotta get one first

Well we came to the fair at exactly the right time
You're in the back room, circumcising my soul with your tequila and lime
Our eyebrows move with atomic perfection
The eyes dart aimlessly, that whole scene was a swollen infection

I was talking around, just the right time
I wandered aloud, just the right time

(On the souls of Natives sneezing
While the children yelp
And die down completely deserved
On golden days of yore
You ask a favor, wheels spin ‘round
And some advice I duly serve)

Shake the fleas off
And give them the necessary precautions…

While I do adore these auctions
Just let me please run ‘cause

If you wanna eat a rabbit, Then you gotta catch it first
If you wanna break a habit, Then you gotta get one first
If you’ve spoken out of turn and found a target on your head
Then you got what you deserved, a hundred gigawatts of lead
Bitch.

I was talking around, just the right time
I wandered aloud, just the right time



************************************

| /  Slide up
| \  Slide down
| b  Bend
| h  Hammer-on
| p  Pull-off
| > 
| < 
| TR 
| brb 
| uitar: 

************************************
Suggest correction
Creating personal tab
Creating personal tab
You can edit any tab online and save it as your Personal.

You can edit, replace or remove any tab part or add personal notes – all changes will be seen only by you.

Personal tabs can be accessed anytime from any device, even offline.
Learn more »
Give kudos to tab author, rate the tab!
1 2 3 4 5
comments
print report bad tab
guest
You may want to rate the tab now too:
select rating
Wanna post a correction for this tab? Suggest correction