Oops, an error
Loading. Please wait.

Bill Mccai bass

version 1
version 1

Whole song

Interactive

by Coral
1,096 views 1 this week
1 commentread comment
1 2 3 4 5
2 more votes to show rating
add to favorites
×
Save as Personal and add changes to this tab that will be seen only by you. Learn more ›
×
You can save this tab as Personal to edit and correct it or add notes. All changes will be seen only by you. Learn more »
launch autoscroll
font size
0
reset
guitar tuner
edit
Autoscroll
slow
fast
+/-
esc
set tempo
stop
Author
Difficulty
This is my first tab =). I found it troublesome that nobody had tabbed this yet.

Song title: Bill McCai
Artist: The Coral
Album: Magic and Medicine

INTRO
G|-----------------------------------------------------|
D|-----------------------------------------------------|
A|------------------------------------7---7---7---7----|
E|-12-12-10-10-8-8-7-7-5-5-3-3-2-2-0----7---7---7---7--|


VERSE
G|----------------------------------------|
D|----------------------------------------|  
A|-7---7---7---7-775-3---3-334-5---5-55-6-| 
E|---7---7---7---------3---------5--------|

G|----------------------------------------|
D|----------------------------------------|  
A|-7---7---7---7-775-3---3-334-5---532----| 
E|---7---7---7---------3---------5----5---|


CHORUS
G|----------------------------------------|
D|----------------------------------------| *7 is either not there or just
A|---------3---5--(7)---------3---5-(7)---|  played quitely
E|-3---3-5------------3---3-5-------------|

  ...boy agaaaiin 
G|----------------------------------------|
D|----------------------------------------|
A|----------------------------------------|
E| --12-12-10-10-8-8-7-7-5-5-3-3-2-2-0----|


SOLO
G|----------------------------------------|
D|----------------------------------------|  
A|-7---7---7---7-775-3---3-334-5---5-55-6-| 
E|---7---7---7---------3---------5--------|

G|----------------------------------------|
D|----------------------------------------|  
A|-7---7---7---7-775-3---3-334-5---532----| 
E|---7---7---7---------3---------5----5---|


PART AFTER SOLO
G|-----------------------------------|
D|-----------------------------------|
A|---------2-2-3-3-2-2---------------| I'm not entirely sure about this
E|-3-3-5-5-------------5-5-3-3-2-2---| part but its close to this

G|-----------------------------------|
D|-----------------------------------|
A|-----------------------------------|
E|-12-12-10-10-8-8-7-7-5-5-3-3-2-2-0-|


          < < < < < < < < < < < < SONG ORDER
INTRO
PART AFTER INTRO
VERSE
CHORUS
SOLO
PART AFTER SOLO
VERSE
CHORUS
PART AFTER SOLO X3


It certaintly isnt perfect! email me with corrections
newspenguin@gmail.com
Suggest correction
Creating personal tab
Creating personal tab
You can edit any tab online and save it as your Personal.

You can edit, replace or remove any tab part or add personal notes – all changes will be seen only by you.

Personal tabs can be accessed anytime from any device, even offline.
Learn more »
Give kudos to tab author, rate the tab!
1 2 3 4 5
comments
print report bad tab
1 comment total.
0 reply
andy.allan 10 Jul 22, 2016 11:45 PM

Do you fancy doing some other coral song tabs ? i can play the tabs im just not good enough at figuring out how to write the tabs yet !

guest
You may want to rate the tab now too:
select rating
Wanna post a correction for this tab? Suggest correction