Oops, an error
Loading. Please wait.

Dreaming Of You Tab

version 1
version 1

Whole song

Interactive

55,508 views 33 this week
2 commentsread comments
1 2 3 4 5
x 34
add to favorites
launch autoscroll
font size
0
reset
how to read this tab
guitar tuner
×
Best way to learn
"Dreaming Of You"
Autoscroll
slow
fast
+/-
esc
set tempo
stop
e------------------------------------------------------------------
b------------------------------------------------------------------
g---4-5-5s7-5-4--5-5---------------4-5-5s7-5-4h5p4---5-5---5-----7-
d-7-------------7-----5---5---5--7-----------------7-----7---7s9---
a-------------------7---7---7--------------------------------------
E------------------------------------------------------------------

e---8-------------------------------------------0---------------------
b----5-8-/5-(8)-/5--------5-----3-----------------1-----1-----------1-
g-5---------------7-5-4-----3h4---3h4-3h4-2-0-------0h2---------------
d-----------------------5---------------------3-----------3-3-2-0-2---
a-----------------------------------------------------------------0---
E---------------------------------------------------------------------

e---------------------0--------------------------------8---7-
b-------3-1-----------------1-----------------1-----1--10--9-
g-----0-----------5-----0h2---0h2p0-----0-0h2----------10--9-
d-0h2-------2-2s5---3---------------3-2---------0h2----10--9-
a------------------------------------------------------8---7-
E------------------------------------------------------------

Sounds perfect except for the odd note. Thanks, Phil
Suggest correction
comments
print report bad tab
2 comments total.
0 reply
94jt12 27 Jun 26, 2010 07:10 AM

perfect tab- cant believe it isnt five star :(

0 reply
UsernameForUG 11 Jul 31, 2016 06:55 AM

It basiclly is the same, but not all over the fretboard here.
I prefer it like this, try it if you have struggles with the tab above.
e------------------------------------------------------------------
b------------------------------------------------------------------
g---4-5-5s7-5-4--5-5---------------4-5-5s7-5-4h5p4---5-5---5-----7-
d-7-------------7-----5---5---5--7-----------------7-----7---7s9---
a-------------------7---7---7--------------------------------------
E------------------------------------------------------------------

e---8---------------------------------------------0---------------------
b------8----(8)---------------------------------------------------------
g-5--9---/9----/9-7---------9-----6-----------------5-----5-----------5-
d-------------------10-9------7h8---7h8-7h8-7-5-------5h7---------------
a------------------------10---------------------8-----------8-8-7-5-7---
E-------------------------------------------------------------------5---

e-----------------------0--------------------------------8---7-
b--------------------------------------------------------10--9-
g-------7-5-------------------5-----------------5-----5--10--9-
d-----5------------10-----5h7---5h7p5-----5-5h7---5h7----10--9-
a-5h7-------7-7s10----8---------------8-7----------------8---7-
E--------------------------------------------------------------

guest
You may want to rate the tab now too:
select rating
Wanna post a correction for this tab? Suggest correction