Oops, an error
Loading. Please wait.

Dreaming Of You solo tab

version 2
version 2

Whole song

Interactive

by Coral
30,586 views 6 this week
1 commentread comment
1 2 3 4 5
x 3
add to favorites
×
Save as Personal and add changes to this tab that will be seen only by you. Learn more ›
×
You can save this tab as Personal to edit and correct it or add notes. All changes will be seen only by you. Learn more »
launch autoscroll
font size
0
reset
how to read this tab
guitar tuner
backing track
0:00
0:00
edit
Autoscroll
slow
fast
+/-
esc
set tempo
stop
Author
                                            
Play whit a Clean gtr. whit a little tremolo effect  
 
e|-------------------------------------------------------|
B|-------------------------------------0-----------------|
G|--2--4--5--5/7---5---4----\2-------5-5-------0--0--0---|
D|--------------------------------------------2--2--2----|
A|-------------------------------------------------------|
E|-------------------------------------------------------|
                                                     
e|-------------------------------------------------------|
B|-------------------------------------------0-----------|
G|--2--4--5--5/7---5---4h(5)p4---\2--------5-5-----------|
D|-------------------------------------------------------|
A|-------------------------------------------------------|
E|-------------------------------------------------------|
 
       |----------let ring   
e|-------------------|-----0--------------------------0--|
B|-------------------|--------5----3h5--3h5p3---------5--|
G|-----5---------7---|--5---------------------5p4--------|
D|--7-----7-/--9-----|----------------------------5------|
A|-------------------|-----------------------------------|
E|-------------------|-----------------------------------|

E|---------------------------0--|-----------------------0|
B|-----4---------------------1--|---0-------------------1|
G|-3h5----3h5---3h5p3--0--------|---0h2------------------|
D|------------------------3-----|-3-----3--3--3-2--0-----|
A|------------------------------|--------------------0---|
E|------------------------------|------------------------|
             |--let ring           |--let ring
e|-----(0)---0------------------0---------------------------0--------0--|
B|------1--3p1------------------1--------1------------------1--------x--|
G|--------------------5------------0h2---0h2--0------0------2--------5--|
D|-0h2----------2/-5-----(1)/3-------------------3-2----1/3----3/-5-----|
A|----------------------------------------------------------------------|
E|----------------------------------------------------------------------|

e|----5----4----|   
B|----6----5----|    
G|----5----4----|
D|--------------|
A|--------------|
E|--------------|

  To help you, when you´re playing the solo, use the Uñeteo Híbrido(I don't 
  know how to write it in English).

            
            
Suggest correction
Creating personal tab
Creating personal tab
You can edit any tab online and save it as your Personal.

You can edit, replace or remove any tab part or add personal notes – all changes will be seen only by you.

Personal tabs can be accessed anytime from any device, even offline.
Learn more »
Give kudos to tab author, rate the tab!
1 2 3 4 5
comments
print report bad tab
1 comment total.
0 reply
ConorL@tcham 21 May 06, 2009 09:39 AM

im positive the second half goes a bit shit but im not good enough to correct it

guest
You may want to rate the tab now too:
select rating
Wanna post a correction for this tab? Suggest correction