Oops, an error
Loading. Please wait.

Dreaming Of You bass

version 3
version 3

Whole song

Interactive

by Coral
4,880 views 21 this week
no commentswrite comment
1 2 3 4 5
x 4
add to favorites
×
Save as Personal and add changes to this tab that will be seen only by you. Learn more ›
×
You can save this tab as Personal to edit and correct it or add notes. All changes will be seen only by you. Learn more »
launch autoscroll
font size
0
reset
guitar tuner
backing track
0:00
0:00
edit
Autoscroll
slow
fast
+/-
esc
set tempo
stop
Author
Difficulty
Song:Dreaming Of You
Band:The Coral
Album:The Coral

Riff1
G|--------------------------------------------------------------------|
D|--7------7--------7------7------------------------------------------|
A|----------7------7--------7------78------8--------8------8-------8--|
E|------------------------------------------8------8--------8---------|

Riff2
G|--------------------------------------------------------------------|
D|--7------7--------7------7------------------------------------------|
A|----------7------7--------7------78------8--------8------88---7-----|
E|------------------------------------------8------8------------------|

Riff3
G|--------------------------------------------------------------------|
D|--7------7--------7------7------------------------------------------|
A|----------7------7--------7------78------8--------8---7---8---7-----|
E|------------------------------------------8------8------------------|

Chorus1
G|--------------------------------------------------------------------|
D|-------------------------------3--5------5--------5-------5---4-----|
A|--0h3-----0h3-----0h3-----0h3-------------5------5-------5----------|
E|--------------------------------------------------------------------|

G|--------------------------------------------------------------------|
D|--3------3--------3-------3---5---7------7--------7------7----------|
A|----------3------3-------3----------------7------7--------7------7--|
E|--------------------------------------------------------------------|

G|--------------------------------------------------------------------|
D|----------------------------------7-----7-7-------------------------|
A|--8------8--------8------88---7---------------7-7-8-----7-----------|
E|----------8------8--------------------------------------------------|

Chorus2
G|--------------------------------------------------------------------|
D|-------------------------------3--5------5--------5-------5---4-----|
A|--0h3-----0h3-----0h3-----0h3-------------5------5-------5----------|
E|--------------------------------------------------------------------|

G|--------------------------------------------------------------------|
D|--3------3--------3-------3---5---7------7--------7------7----------|
A|----------3------3-------3----------------7------7--------7------7--|
E|--------------------------------------------------------------------|

G|--------------------------------------------------------------------|
D|----------------------------------7-----7-7-------------------------|
A|--8------8--------8------88---7---------------7-7-8-----7-----------|
E|----------8------8--------------------------------------------------|

G|--------------------------------------------------------------------|
D|--------------------------------------------------------------------|
A|--8-----7---------8-----7---------8-----7---------8-----7-----------|
E|--------------------------------------------------------------------|

Playing Order

Riff1
Riff2
Riff1
Riff2
Chorus1
Riff1
Riff2
Riff1 X3
Riff3
Chorus2
Riff1
Riff2
Chorus1
Riff1
Riff3
Chorus1

            
            
Suggest correction
Creating personal tab
Creating personal tab
You can edit any tab online and save it as your Personal.

You can edit, replace or remove any tab part or add personal notes – all changes will be seen only by you.

Personal tabs can be accessed anytime from any device, even offline.
Learn more »
comments
print report bad tab
guest
You may want to rate the tab now too:
select rating
Wanna post a correction for this tab? Suggest correction