Oops, an error
Loading. Please wait.

Morir A Los 33 tab

by Coraza
14 views 1 this week
no commentswrite comment
1 2 3 4 5
3 more votes to show rating
add to favorites
×
Save as Personal and add changes to this tab that will be seen only by you. Learn more ›
×
You can save this tab as Personal to edit and correct it or add notes. All changes will be seen only by you. Learn more »
launch autoscroll
font size
0
reset
how to read this tab
guitar tuner
edit
Autoscroll
slow
fast
+/-
esc
set tempo
stop
G        Bm       Em              (esto 2 veces)
---3--------2--------------0---2---------------
-----0--------3--------0-----0-----------------
-------0--------4----0---0---------------------
-----------------------------------------------
----------2------------------------------------
-3-----------------0---------------------------

C             D             G            
-------0------2-3-2-0-------3-5-3-------3-5-3----------
-1-3-1---1------------3-----------0------------0-------
-----------0------------2-----------0------------------
--------------0-----------------------0----------------
-3-----------------------------------------------------
----------------------------3-5-3-------3-5-3-----0-2-3

CADA PISADA LLEVA EL MISMO ARPEGIO

G           Bm         Em
La vida, el tiempo, la historia
G   Bm        Em
una vez en la vida,
G  Bm       C    C-9            D
se vive el tiempo,  se acaba el tiempo.

G    Bm          Em
Unas veces hasta arriba
G     Bm              Em
otras tantas hasta el sotano,
G       Bm     Em  C
a veces acelerado
                 D
o en sentido contrario.

G      Bm            Em
La vida, se me va la vida
G       Bm          Em
la vida no se que hacer con ella,
G      Bm        C    C-9
si acabarla a tiempo
          D
o dejar correr el tiempo.

G       Bm  Em
Morir a los 33 quisiera
G       Bm       Em
para poder descansar,
G  Bm    C    C-9              D
de esta locura,  que no tiene cura.

G     Bm              Em
Dime por quien doblan las campanas
G     Bm        Em
esas tristes campanas,
G   Bm    C   D
que doblaran
      G
a los 33.

Requinto:
 G      Bm   Em              G    Bm  Em     C     D
---------------------------------------------------------
---------------------------------------------------------
---------------------------------------------------5-7-5-
-----5-----5-9-7-5---5-7-5-5-----5-----5-9-7-5-7-5-------
-5-7---5-7---------7---------5-7---5-7-------------------
---------------------------------------------------------

G                Bm                Em    (es 2 veces este requinto con el mismo circulo)
7------------------------------------------------------------------
--10-8-7-8-7-------------------------------------------------------
-------------9-7-9-7-----------------------------------------------
---------------------10-9-10-9-7----7------------------------------
---------------------------------10---10-9-7-10-9-7----7-----------
----------------------------------------------------10---10-8-7-8-7-
G       Bm         Em
Cuantas noches excedidas has vivido
G       Bm    Em
cuantos dias en las mismas,
G  Bm   C    D
para llegar
                    G Bm Em B
arrastrandote a trabajar

Em   C             G      D
Mil rutas tiene la muerte
Em   C              D
mil caminos para llegar 
    C      D      G Bm Em  G Bm Em C D G
y ninguno para regresar.

C-9                     B
------------0--     ------------2---
----------0----     ----------3-----
--------0------     --------3-------
------2--------     ------3---------
----3----------     ----2-----------
--0------------     --2-------------

BUENO PUES ESA ES TODA LA CANCION DE PACO YESCAS UN EXPERTO EN GUITARRA 
EGRESADO DEL INSTITUTO NACIONAL DE BELLAS ARTES (INBA) Y QUIEN TIENE ROLAS 
IGUAL DE INTERESANTES.
SALUDOS AL BACHILLERES 3, TURNO MATUTINO
CUALQUIER DUDA A danielcvmp@

            
            
Suggest correction
Creating personal tab
Creating personal tab
You can edit any tab online and save it as your Personal.

You can edit, replace or remove any tab part or add personal notes – all changes will be seen only by you.

Personal tabs can be accessed anytime from any device, even offline.
Learn more »
Give kudos to tab author, rate the tab!
1 2 3 4 5
comments
print report bad tab
guest
Wanna post a correction for this tab? Suggest correction