Oops, an error
Loading. Please wait.

Cadalso De Amor Y Odio bass

11 views 1 this week
no commentswrite comment
1 2 3 4 5
3 more votes to show rating
add to favorites
×
Save as Personal and add changes to this tab that will be seen only by you. Learn more ›
×
You can save this tab as Personal to edit and correct it or add notes. All changes will be seen only by you. Learn more »
launch autoscroll
font size
0
reset
guitar tuner
edit
Autoscroll
slow
fast
+/-
esc
set tempo
stop
Intro y Pre-verso  
||-----------------------------------------------------------------------|G
||o----------------------------------------------------------------------|D
||o-0-3-0-3-0-5--3---0-3-0-3-0-5--3---0-3-0-3-0-5--3---0-3-0-3-0-5--3----|A
||-----------------------------------------------------------------------|E


 |----------------------------------------------------------------------|
 |-0-3-0-3-0-5--3---0-3-0-3-0-5--3--------------------------------------|
 |-----------------------------------0-3-0-3-0-5--3--0-3-0-3-0-5--3-----|
 |----------------------------------------------------------------------|


 |---------------------------------------------------------------------||
 |-----------------0-3-0-3-0-5--3-------------------------------------o||
 |---------------------------------0-3-0-3-0-5--3--0-3-0-3-0-5--3-----o||
 |-0-3-0-3-0-5--3------------------------------------------------------||


    aqui hay una pausa de puro ruido y percussion,
    y despues entra cantando con la figura de abajo
    se repite 2 veces
 ||---------------------------------------------------------------------|
 ||o--------------------------------------------------------------------|
 ||o-0-3-0-3-0-5--3--0-3-0-3-0-5--3--0-3-0-3-0-5--3--0-3-0-3-0-5--3-----|
 ||---------------------------------------------------------------------|


 |--------------------------------------------------------------------|
 |-0-3-0-3-0-5--3--0-3-0-3-0-5--3-------------------------------------|
 |---------------------------------0-3-0-3-0-5--3--0-3-0-3-0-5--3-----|
 |--------------------------------------------------------------------|


 |---------------------------------------------------------------------||
 |-----------------0-3-0-3-0-5--3-------------------------------------o||
 |---------------------------------0-3-0-3-0-5--3--0-3-0-3-0-5--3-----o||
 |-0-3-0-3-0-5--3------------------------------------------------------||


   aqui sigue un Break, es la unica parte donde la guitarra
   toca algo que se entiende, es lo mismo que el bajo, se toca igual
   tambien se repite 2 veces

 ||---------------------------------------------------------------------|
 ||o--------------------------------------------------------------------|
 ||o-0-1-0-1-0-3--1--0-1-0-1-0-3--1--0-1-0-1-0-3--1--0-1-0-1-0-3--1-----|
 ||---------------------------------------------------------------------|


 |--------------------------------------------------------------------|
 |-0-1-0-1-0-3--1--0-1-0-1-0-3--1-------------------------------------|
 |---------------------------------0-1-0-1-0-3--1--0-1-0-1-0-3--1-----|
 |--------------------------------------------------------------------|


 |---------------------------------------------------------------------||
 |-----------------0-1-0-1-0-3--1-------------------------------------o||
 |---------------------------------0-1-0-1-0-3--1--0-1-0-1-0-3--1-----o||
 |-0-1-0-1-0-3--1------------------------------------------------------||


   aqui regresa a cantar, con la misma figura del intro y de bueno..
   de toda la cancion
 ||----------------------------------------------------------------------|
 ||o---------------------------------------------------------------------|
 ||o--0-3-0-3-0-5--3--0-3-0-3-0-5--3--0-3-0-3-0-5--3--0-3-0-3-0-5--3-----|
 ||----------------------------------------------------------------------|


 |--------------------------------------------------------------------|
 |-0-3-0-3-0-5--3--0-3-0-3-0-5--3-------------------------------------|
 |---------------------------------0-3-0-3-0-5--3--0-3-0-3-0-5--3-----|
 |--------------------------------------------------------------------|


 |---------------------------------------------------------------------||
 |-----------------0-3-0-3-0-5--3-------------------------------------o||
 |---------------------------------0-3-0-3-0-5--3--0-3-0-3-0-5--3-----o||
 |-0-3-0-3-0-5--3------------------------------------------------------||


    y termina con esto y se repite 2 veces
 ||---------------------------------------------------------------------|
 ||o--------------------------------------------------------------------|
 ||o-0-1-0-1-0-3--1--0-1-0-1-0-3--1--0-1-0-1-0-3--1--0-1-0-1-0-3--1-----|
 ||---------------------------------------------------------------------|


 |--------------------------------------------------------------------|
 |-0-1-0-1-0-3--1--0-1-0-1-0-3--1-------------------------------------|
 |---------------------------------0-1-0-1-0-3--1--0-1-0-1-0-3--1-----|
 |--------------------------------------------------------------------|


 |---------------------------------------------------------------------||
 |-----------------0-1-0-1-0-3--1-------------------------------------o||
 |---------------------------------0-1-0-1-0-3--1--0-1-0-1-0-3--1-----o||
 |-0-1-0-1-0-3--1------------------------------------------------------||


  Bueno esa es toda la cancion en el bajo, no es complicada, hechenle ganas
  No subi la Tab para lira por k no le veo el caso pero se pueden guiar con esta,
  y cualquier duda, sugerencia o aclaracion, ya saben a donde escribir. bye amigos!!!!!

Esta cancion y esta tab, se la dedico a una niña que ni siquiera conosco, 
pero creo que nuestra amistad va para casi una leyenda..... y es para ti CAROL,
   gracias por aceptarme y confiar en mi, siendo un completo desconocido!!!!!! 
Atte: El Niño CORCOBADO.

           Ah!!!!!! aproveccho para hacer comercial!!!! compren su boleto se terminan
                    CORCOBADO EN EL CIRCO VOLADOR - 26 de Noviembre, No Falten!!!!! 
Nos vemos!!!.


                             ***************************************************
                             * Transcrita por: B-e-N-j-A-m-I-n-_-K-a-B-r-E-r-A *
                             ***************************************************

            
            
Suggest correction
Creating personal tab
Creating personal tab
You can edit any tab online and save it as your Personal.

You can edit, replace or remove any tab part or add personal notes – all changes will be seen only by you.

Personal tabs can be accessed anytime from any device, even offline.
Learn more »
Give kudos to tab author, rate the tab!
1 2 3 4 5
comments
print report bad tab
guest
Wanna post a correction for this tab? Suggest correction