Oops, an error
Loading. Please wait.

Gasolina De Besos tab

22 views 1 this week
no commentswrite comment
1 2 3 4 5
3 more votes to show rating
add to favorites
×
Save as Personal and add changes to this tab that will be seen only by you. Learn more ›
×
You can save this tab as Personal to edit and correct it or add notes. All changes will be seen only by you. Learn more »
launch autoscroll
font size
0
reset
how to read this tab
guitar tuner
edit
Autoscroll
slow
fast
+/-
esc
set tempo
stop
 Gtr 2 
|---------------------------------------------------|
|---------------------------------------------------| esto se repite
|---------------------------------------------------| 8 veces, solo tocalo  
|------------------4-2---------------------4-2------| como se escucha en el cd
|-2-2-2-2-2--2-2-2-----5--2-2-2-2-2--2-2-2-----5----|
|---------------------------------------------------|

 Bass
|-----------------------------------------------------------------------------------------| solo tienes que seguir el  
|-------------------------------------------------------------------------------------9---| tiempo y el ordenamiento   
|-------5--7--5--------------5--7--5--------------5--7--5--------------5--7--5-----9------| de la cancion
|-5--7-----------7--7--5--7-----------7--7--5--7-----------7--7--5--7-----------7---------|


esto se toca 
antes de llegar
al coro
   ~~~~~~~~~~   |............G*...............| 
|-7-----------|--7-----7-----7-----8-7---7--------| Este riff se toca en todas las partes   
|-------------|----8-----8-----8-----------8------| que este un simbolo (G*)
|-------------|------7-----7-----7-----7-----7----| esto se puede tocar con o sin distor
|-------------|-----------------------------------| solo lo toca la gtr 2 (distor)
|-------------|-----------------------------------|
|-------------|-----------------------------------|
 
  PM|   PM|   PM|   PM|  
|-----7-----7-----7-----7----| y esta en las que 
|-----7-----7-----7-----7----| tienen (Bm*)
|-----7-----7-----7-----7----| nota:
|-9-9-9-9-9-9-9-9-9-9-9-9----| esto se toca con distor
|-9-9---9-9---9-9---9-9------| solo lo toca la gtr 2 (distor)
|-7-7---7-7---7-7---7-7------|


Gtr 1 (electroacustica)

Bm                            F#m       
 Voy navegando por el rio de lagrimas

       Bm            C
Que por mi se han derramado

Bm                                F#m
 Voy caminando por el glaciar de llanto

    Em        C
Que yo voy construyendo                          
                            
    Em        C                            
Que yo voy construyendo                                          
                                                           
G*                 Bm*                                       
Y te digo buenas noches                                            
                                                                        
  G*                 Bm*                                               
Pequeña sonrisa te quiero                                                   
                                                                               
G*                 Bm*                                                              
Y te digo buenas noches                                                                
                                                                                        
    F#m      Bm                                                                           
Gasolina de besos                                                                        


Solo: Gtr 2 (distor)
                                                                      ~~       
|-------------------------------------------------------------------------|
|-----12-10----14s15s14-----10-----------------------------------12-15----|
|-----------12-----------------12-11-9s11s9-7-7--------9------11----------|
|-9-9-------------------9-9-----------------9-9-9S---12-9-------------|
|-9-9-------------------9-9-----------------------------------------------|
|-7-7-------------------7-7-----------------------------------------------|


                           ~~
|--------------------------------------------------------------------------------|
|-17-15-------------15-14-15---------12---10---15/-0-7-8-7--------------12-15----|
|-------18-16-14-18------------------------------------------7-------11----------|
|-----------------------------9-9--9----9----9-------------9---9-7s9-------------|
|-----------------------------9-9------------------------------------------------|
|-----------------------------7-7------------------------------------------------|


Bm                                           F#m
 No olvides nunca que lo que nos mueve es el hambre

Bm          C 
Y no el alimento 

Bm                                   F#m
 Voy olvidando hasta mis recuerdos ilesos

    Em                  C
Como un rompecabezas de hombre 

    Em                  C 
Como un rompecabezas de hombre

G*                Bm*
Y te digo buenas noches 

  G*                 Bm*
Pequeña sonrisa te quiero 

G*                 Bm*
Y te digo buenas noches 

    F#m     Bm
Gasolina de besos.........(en esta parte se queda la gtr 1 sola)
                                                   (acustica)

Transcrita por: B-e-N-j-A-m-I-n-_-K-a-B-r-E-r-A

dedicada para todos los seguidores del POETA MALDITO, 
y en especial a | BRENDA |  del 1°1 de la prepa 73
                |La Darky|


NOTA: esta transcripcion esta igual o mejor que la cancion 
solo falta que la puedan tocar, ha! y si no me creen 
preguntenle a JAVIER

            
            
Suggest correction
Creating personal tab
Creating personal tab
You can edit any tab online and save it as your Personal.

You can edit, replace or remove any tab part or add personal notes – all changes will be seen only by you.

Personal tabs can be accessed anytime from any device, even offline.
Learn more »
Give kudos to tab author, rate the tab!
1 2 3 4 5
comments
print report bad tab
guest
Wanna post a correction for this tab? Suggest correction