Oops, an error
Loading. Please wait.

Ladrada Del Afilador tab

37 views 1 this week
no commentswrite comment
1 2 3 4 5
3 more votes to show rating
add to favorites
×
Save as Personal and add changes to this tab that will be seen only by you. Learn more ›
×
You can save this tab as Personal to edit and correct it or add notes. All changes will be seen only by you. Learn more »
launch autoscroll
font size
0
reset
how to read this tab
guitar tuner
edit
Autoscroll
slow
fast
+/-
esc
set tempo
stop
 

      Am                        G         Em       |  en esta parte el rasgueo es muy facil 
Hemorragia bonita de tierna chiquita,              |  de sacar, solo ponle mucha atencion,
                                                   |  
    Am                                             | el bajo tiene un solo adorno en esta  
tumbada en la nieve,  perdida en el monte,         | parte, unicamente cuando llegas al  
                                                   | al tono de Em, as un slide al traste 
   G                    Em        Am               | 12.
almendras en los brazos, en los brazos .           
                                                   |-0/12-----------|escucha bien esa parte 
                                                     y veras que no esta complicado

 Gtr I
  E  E  E  E  E  E  E  E  E  E  E  E
|----------------------------5-------| Esta parte se repite durante todo el verso 
|------------------------------------| 
|-2--------2--------2--------2-------|
|----2--------2--------2--------2----|las partes que estan marcadas no son exactas,
|-------0--------0--------0--------0-|solo varian en las veces que hay que tocar
|------------------------------------|
                                       
el bajo solo va marcando el tono

|------------------------------------|
|------------------------------------|los adornos del bajo tambien varian en toda la cancion
|-------0--------0--3--3--0--------0-|
|-------------------------------3----|

Gtr II

Riff# 1

  E  E   E   E   E   E  E  E  E    
|-5--12--15--18--12--3--5--3--5---| en este riff si no tienes slide, te sera mas complicado
|---------------------------------| acerlo,tambien la Gtr II varia en toda la cancion 
|---------------------------------| solo escucha el fondo del verso
|---------------------------------|
|---------------------------------|
|---------------------------------|

Riff# 2

  E   E   E   E  E  E  E   
|-12--18--12-(3--5--3--5)| Tambien esto se ase con puro slide
|------------------------| nota: los dos riffs que puse aqui 
|------------------------| se repiten en toda la cancion solo
|------------------------| escuchala y ponle atencion a los fondos
|------------------------| solo hay algunas partes en donde lo que 
|------------------------| esta entre parentesis se repite varias veces


Miguel Ángel era el afilador de los pueblos de la ribera del Jotador. 
En Varenda lo acusaron de robar tres ovejas el día de San Adán,  
para dar de comer al lobo que tenía encerrado en su caserón.  
Maldita madera del caserón que la iglesia abandonó. 
Miguel Ángel era el afilador,  herencia que su padre le dejó,  
no era un ladrón, mimaba las hachas los cuchillos y navajas,  
hoces y flechas de amor, entre el humo de la leña bandera de chimeneas  
espíritu de las calles donde la gente imitaba amargada ademanes de ciudad. 

                                                    
      Am                        G         Em        |aclaracion, el adorno del bajo se va 
Hemorragia bonita de tierna chiquita,               |aser en todos los Em de esta parte

    Am                                              |-0/12-----------|
tostada por el sol, perdida en el monte,  

     G                 Em       Am
aceitunas en los brazos, en los brazos. 


Gtr I
  E  E  E  E  E  E  E  E  E  E  E  E
|----------------------------5-------|  
|------------------------------------|
|-2--------2--------2--------2-------|
|----2--------2--------2--------2----|
|-------0--------0--------0--------0-|
|------------------------------------|
bajo
|------------------------------------|
|------------------------------------|
|-------0--------0--3--3--0--------0-|
|-------------------------------3----|
 

Blandían la muerte con amenazas de sogas y ancianas escopetas de caza, 
allí donde la justicia  era tomada por cualquier encallecida mano.  
Vino de invierno, noche sin luna.  
Miguel Ángel despertó ardiendo en su colchón con el infierno alrededor 
agarrándole los ojos a la vida de un salto se puso en pie  
y apagándose su arder con el saco que era su manta  
corrió despavorido hacia la oscura habitación donde aullaba su idiota hermano  
al que por lobo tomaban, los aullidos en gritos se tornaban  
y la puerta dilatada quedó atascada Miguel Ángel golpeaba,  golpeaba, golpeaba,  
mientras iban creciendo las voces de las llamas, madera endemoniada.  
Al final casi en ascuas la puerta derribó 
y allí Miguel Ángel halló la viga roja de la ira  
que partió a su hermano en dos. 
Humo de huesos y de negras esperanzas 
empujado por aquel frío viento de febrero 
que hasta el ultimo pilar de aquella gigante pira derrumbó.  


      Am                        G        Em  
Hemorragia bonita de tierna chiquita,                   |-0/12-----------|
                                                             
   Am
mojada por la lluvia, perdida en el monte, 

G                 Em         Am  
uvas en los brazos, en los brazos.


Gtr I
  E  E  E  E  E  E  E  E  E  E  E  E
|----------------------------5-------|  
|------------------------------------|
|-2--------2--------2--------2-------|
|----2--------2--------2--------2----|
|-------0--------0--------0--------0-|
|------------------------------------|
bajo
|------------------------------------|
|------------------------------------|
|-------0--------0--3--3--0--------0-|
|-------------------------------3----|
 
 
Las gentes de la rivera olvidaron al afilador,  
un embrujo del silencio de sus mentes lo arrancó  
y ya nunca nadie supo que significaba 'afilador''.  
Era primavera y las niñas celebrando su comunión  
cantaban en amapolas empapadas de candor, 
esa tarde la hija de Amos Brenan en el monte desapareció 
entre valses de abejas y amores de colores.  
A la mañana siguiente la encontraron, piel de ángel desgarrada  
entre el blanco raso de su encarnación.  


      Am                        G       Em             
Hemorragia bonita de tierna chiquita,                     |-0/12-----------|

   Am
bajo el cielo azul, perdida en el monte,  

    G                  Em         Am
mariposas en los brazos, en los brazos.  

Gtr I
  E  E  E  E  E  E  E  E  E  E  E  E
|----------------------------5-------|  
|------------------------------------|
|-2--------2--------2--------2-------|
|----2--------2--------2--------2----|
|-------0--------0--------0--------0-|
|------------------------------------|
bajo
|------------------------------------|    
|------------------------------------|
|-------0--------0--3--3--0--------0-|
|-------------------------------3----|


Miguel Ángel era el afilador,  
en el techo de su cueva casi en el centro de la tierra  
hay pintadas con yeso estrellas y en un rincón dormida su bicicleta,  
las paredes se iluminan con el llanto de una vela reflejo de bellos  filos, 
hojas que no caen en otoño y la rueda de esmeril afilando allí sus sueños 
y desde hace ya cien meses allá escondido vive  
y una niña que se pierde en cada estación del año  
y una niña que no vuelve en cada estación del año. 
Esta es la ladrada de Miguel Ángel el afilador,  
yo la ladro como un perro, 
las noches de San Adán entre suspiros de tormenta 
cuando la lejana flauta suena, flauta del afilador


Gtr I
  E  E  E  E  E  E  E  E  E  E  E  E
|------------------------------------| Aqui es la unica parte en donde cambia la guitarra, 
|------------------------------------| en esta ultima parte yano lleva bajo,  
|-------2--------2--------2--------2-| pero si se lo quieren poner es recomendable que sea
|----2--------2--------2--------2----| marcado con el bombo
|-0--------0--------0--------0-------|
|------------------------------------|

otra cosa de la que no estoy seguro es que en esta parte la Gtr II ya no toca, 
pero si se la quieren poner, hay les pongo un adorno que les va ayudar cuando la esten tocando

Gtr II 
  E  E  E  E  E  E  E  E  E  E  E  E
|-------------------------------------| lo pueden aser, normal o con distor, 
|-------10-------10-------10-------10-|  
|----9--------9--------9--------9-----| 
|-7--------7--------7--------7--------| 
|-------------------------------------|
|-------------------------------------|

No vayas chiquita al monte que allá los cuchillos vuelan, 
como cuervos en tinieblas sin sumir las piernas.
--------------------------------------------------------------------------------------------
dedicada para todos los seguidores del poeta maldito
             
espero que les guste la transcripcion y que le allan entendido a todas las acotaciones que puse, 
atentamente: B-e-N-j-A-m-I-n---K-a-B-r-E-r-A
Suggest correction
Creating personal tab
Creating personal tab
You can edit any tab online and save it as your Personal.

You can edit, replace or remove any tab part or add personal notes – all changes will be seen only by you.

Personal tabs can be accessed anytime from any device, even offline.
Learn more »
Give kudos to tab author, rate the tab!
1 2 3 4 5
comments
print report bad tab
guest
Wanna post a correction for this tab? Suggest correction