Oops, an error
Loading. Please wait.

Sweet Dreams Tab

1,936 views 1 this week
no commentswrite comment
1 2 3 4 5
please rate
add to favorites
launch autoscroll
font size
0
reset
how to read this tab
guitar tuner
Tab Pro tools
  • play this tab
  • loop segment
  • change instrument
  • show fretboard
  • metronome
×
Best way to learn
"Sweet Dreams"
Autoscroll
slow
fast
+/-
esc
set tempo
stop
Contributor
Dsus2:  000230
Dsus4:  000233
Cmaj7:  032000 or 032003
Cadd9:  032030 or 032033

fill pattern (easy version)
 D                      Em                      D                      Em
--------2-----0h2-2------------3-----2h3-3-------------2-----0h2-2------------3------3--------------|
------3-----3-------3--------0---0---------0---------3-----3-------3--------0---0----3--------------|
----2-----2-----------2----0-------0---------0-----2-----2-----------2----0-------0--0--------------|
-0----------------------2-----------------------0----------------------2-------------0--------------|
-------------------------------------------------------------------------------------0--------------|
-------------------------------------------------------------------------------------0--------------|
fill pattern (more authentic version)
 D                      Em                      D                      Em
-------------------------------------------------------------------------------------10-------------|
--------7-----5h7-7------------8-----7h8-8-------------7-----5h7-7------------8------8--------------|
------7-----7-------7--------9---9---------9---------7-----7-------7--------9---9----7--------------|
----7-----7-----------7----9-------9---------9-----7-----7-----------7----9-------9--9--------------|
-5----------------------7-----------------------5----------------------7-------------7--------------|
-------------------------------------------------------------------------------------0--------------|


Em              Dsus2      G
Nando mo yogoshite wa aratte iru
Em                     D         Cadd9
SHI-TSU mitai na futari no jikan ni
Em                Dsus2    G
Toki ni tsukareru koto mo aru darou
Em                       D      Cmaj7 G
Semete koyubi dake wa tsunaide iyou


Em              Dsus2      G
Nani ga attemo ai wo ageru nante
Em                  D           Cadd9
Shindemo iwanai you na anata ga ii
Em              Dsus2      G
Maboroshi ya karappo no mirai yori
Em                     D       G
Futari no ashiato wo nagamete iyou

        Em     Cadd9
* Sweet Dreams baby
   D         G
Amai yume wo baby
     Em             C
Atashi no tonari de baby
    D        Cadd9
You are safe tonight

         Em     Cadd9
** Sweet Dreams baby
   D         G
Amai yume wo baby
       Em     C
Ban'an banbei baby
       D               Cmaj7
Let me sneak into your dreams

Cmaj7 Dsus2 Em
Cmaj7 Dsus4 Em

fill

Em            Dsus2      G
Anata ga taikutsu shinai you ni
Em                 D          Cadd9
Atashi wa odoriko ni naru keredo
Em           Dsus2      G
Hontou no omocha wa anata na no
Em                      D       G
Muchuu ni natte kowashisou ni naru


          Em      Cadd9
Atashi no yubi wo namete
     D         G
Kono hitomi wo tojite
       Em          C
Hanete miseru kara baby
     D            Cadd9
Stay by my side tonight


** repeat

Cmaj7 Dsus2 Em
Cmaj7                        D      Em
      Let me sneak into your dreams

D Cadd9
D Cmaj7
D Cadd9
D Cmaj7

*, ** repeat

Cmaj7 Dsus2 Em
Cmaj7                        D      Em
        Let me sneak into your dreams

(fill pattern to the end)
Sweet Dreams...

------------------------------------------------------------------------------|
-------3----------0-----------------------------------------------------------|
-----0-----0-2-0--0-----------------------------------------------------------|
---2-----0--------0-----------------------------------------------------------|
-3----------------2-----------------------------------------------------------|
------------------3-----------------------------------------------------------|

http://www.project-j.org/coreofsoul.htm
comments
We did not receive enough feedback on this tab! Please rate:
print report bad tab
1 2 3 4 5
I want to post or [tab]
guest
You may want to rate the tab now too:
select rating
Please do not post tabs as comments. Select "correction" instead!