Oops, an error
Loading. Please wait.

When Im With You tab

2,106 views 1 this week
1 commentread comment
1 2 3 4 5
2 more votes to show rating
add to favorites
×
Save as Personal and add changes to this tab that will be seen only by you. Learn more ›
×
You can save this tab as Personal to edit and correct it or add notes. All changes will be seen only by you. Learn more »
launch autoscroll
font size
0
reset
how to read this tab
guitar tuner
edit
Autoscroll
slow
fast
+/-
esc
set tempo
stop
----------------------------------------------------------------------------
                   When I'm With You - Corey Crowder
----------------------------------------------------------------------------
Tabbed by: Brandon G
Email: terre.gable334@wku.edu

Tuning: Standard (EADGBe)
Capo on 2nd fret.
Everythings relative to the capo.

/  slide up
x  Mute note

Intro & Verses:
e|-0--0---0---0--0--0-0--0--0-0-0---0--0-0-0--|
B|-0--0---0---0--0--0-0--0--0-0-0---0--0-0-0--|
G|-2--2/4-4---4--4--4-4--2--2-2-4---4--4-4-4--|
D|-2--2/4-4---4--4--4-4--2--2-2-4---4--4-4-4--| Repeat
A|-0--0---0---0--0--0-0--0--0-0-2---2--2-2-2--|
E|-0--0---4---4--4--4-4--2--2-2-0---0--0-0-0--|

Chorus:
e|-0--0-0-0-0--0-0-0-0-0--0--0-0-0-0--0-0-0-0-0-|
B|-0--0-0-0-0--0-0-0-0-0--0--0-0-0-0--0-0-0-0-0-|
G|-6--6-6-6-6--6-6-6-6-6--4--4-4-4-4--4-4-4-4-4-|
D|-6--6-6-6-6--6-6-6-6-6--4--4-4-4-4--4-4-4-4-4-|
A|-0--0-0-0-0--0-0-0-0-0--0--0-0-0-0--0-0-0-0-0-|
E|-5--5-5-5-5--5-5-5-5-5--4--4-4-4-4--4-4-4-4-4-|

e|-0--0-0-0-0--0-0-0-0-0--0--0-0-0-0--0-0-0-0-0-|
B|-0--0-0-0-0--0-0-0-0-0--0--0-0-0-0--0-0-0-0-0-|
G|-2--2-2-2-2--2-2-2-2-2--1--1-1-1-1--1-1-1-1-1-|
D|-2--2-2-2-2--2-2-2-2-2--2--2-2-2-2--2-2-2-2-2-|
A|-0--0-0-0-0--0-0-0-0-0--2--2-2-2-2--2-2-2-2-2-|
E|-2--2-2-2-2--2-2-2-2-2--0--0-0-0-0--0-0-0-0-0-|

e|-0--0-0-0-0--0-0-0-0-0--0--0-0-0-0--0-0-0-0-0-|
B|-0--0-0-0-0--0-0-0-0-0--0--0-0-0-0--0-0-0-0-0-|
G|-6--6-6-6-6--6-6-6-6-6--4--4-4-4-4--4-4-4-4-4-|
D|-6--6-6-6-6--6-6-6-6-6--4--4-4-4-4--4-4-4-4-4-|
A|-0--0-0-0-0--0-0-0-0-0--0--0-0-0-0--0-0-0-0-0-|
E|-5--5-5-5-5--5-5-5-5-5--4--4-4-4-4--4-4-4-4-4-|

e|-0--0-0-0-0--0-0-0-0-0--0--0-0-0-0--0-0-0-0-0-|
B|-0--0-0-0-0--0-0-0-0-0--0--0-0-0-0--0-0-0-0-0-|
G|-2--2-2-2-2--2-2-2-2-2--4--4-4-4-4--4-4-4-4-4-|
D|-2--2-2-2-2--2-2-2-2-2--4--4-4-4-4--4-4-4-4-4-|
A|-0--0-0-0-0--0-0-0-0-0--2--2-2-2-2--2-2-2-2-2-|
E|-2--2-2-2-2--2-2-2-2-2--0--0-0-0-0--0-0-0-0-0-|

This whole song just repeats the versus and intro over and over, shouldn't be to hard to 
out. Strummings not 100% accurate but close.
============================================================================

            
            
Suggest correction
Creating personal tab
Creating personal tab
You can edit any tab online and save it as your Personal.

You can edit, replace or remove any tab part or add personal notes – all changes will be seen only by you.

Personal tabs can be accessed anytime from any device, even offline.
Learn more »
Give kudos to tab author, rate the tab!
1 2 3 4 5
comments
print report bad tab
1 comment total.
0 reply
'thew 54 Oct 29, 2008 10:18 AM

nice job

guest
You may want to rate the tab now too:
select rating
Wanna post a correction for this tab? Suggest correction