Oops, an error
Loading. Please wait.

Its Over Tab

8,287 views 6 this week
2 commentsread comments
1 2 3 4 5
1 last vote to show rating
add to favorites
launch autoscroll
font size
0
reset
how to read this tab
guitar tuner
Autoscroll
slow
fast
+/-
esc
set tempo
stop
Help us to improve Ultimate-Guitar.com Take our survey!
×
Author
-------------------------------------------------------------------------------
                             It's Over - Corey Smith
-------------------------------------------------------------------------------
Tabbed by: Jayrod

Tuning: standard

Intro, Verses, etc. (mess around with it)
e|----------------------------------------------------------------------------|
B|----------------------------------------------------------------------------|
G|------------------------------------------------9--------9-----9/-----------|
D|-----9--------9--------9---------9----------9h11-----9-----9/---------------|
A|---9h11-----12-----9h11-----9h11--------0--------0-----0--------------------|
E|-----0---------0--------0---------0-----------------------------------------|

"It's time to show myself the door..."
e|----------------------|
B|----------------------|
G|----8------6----------|
D|----9------7----------|  x2
A|----9------7----------|
E|----7------5----------|

"Heartbreak, runaway..."
e|-------------------------------------------|
B|----9--------------------------------------|
G|----9-------8--------6-------8-------------|
D|----9-------9--------7-------9-------------|  x2
A|----7-------9--------7--------9------------|
E|------------7--------5--------7------------|


h=hammer
/ = slide down
Suggest correction
Give kudos to tab author, rate the tab!
1 2 3 4 5
comments
print report bad tab
2 comments total.
0 reply
bama 125 Nov 17, 2006 05:00 AM

hey jayrod,
do you know the chord to f**k the PO-POs

0 reply
Jayrod 390 Mar 20, 2009 03:44 AM

Just wanted to point this out forever later that the intro is still good, just got misaligned when I initially submitted it. Hopefully this one looks better

e|----------------------------------------------------------------------------|
B|----------------------------------------------------------------------------|
G|-------------------------------------------9--------9-----9/-----------|
D|-----9-------9--------9---------9----------9h11-----9-----9/---------------|
A|---9h11-----12--------9h11------9h11-------0--------0-----0--------------------|
E|-----0-------0--------0---------0-----------------------------------------|

guest
You may want to rate the tab now too:
select rating
Wanna post a correction for this tab? Suggest correction