Oops, an error
Loading. Please wait.

Long Way To Go tab

5,646 views 3 this week
1 commentread comment
1 2 3 4 5
2 more votes to show rating
add to favorites
×
Save as Personal and add changes to this tab that will be seen only by you. Learn more ›
×
You can save this tab as Personal to edit and correct it or add notes. All changes will be seen only by you. Learn more »
launch autoscroll
font size
0
reset
how to read this tab
guitar tuner
edit
Autoscroll
slow
fast
+/-
esc
set tempo
stop
-------------------------------------------------------------------------------
                      Long Way to Go - Corey Smith
-------------------------------------------------------------------------------
Tabbed by: Jayrod

Tuning: Capo 2, standard

This is the hidden track version from the Undertones album (which is better in my 
Sounds best if played without a pick.

Intro & Verses
e|----------0h2p0-----------------0h2p0---------------------3--------------------------0--|
B|---------------------3-----------------------3--------------------------------0h3-------|
G|----------------------------------------------------------------------------------------|
D|----0-----------------------------------------------------------------------------------|
A|--------------------------------------------------------------------0h2-----------------|
E|---------------------------2--------------------------3---------------------------------|

Prechorus: Strum G chord when you get to it in the verse

Chorus
e|------2-------------3-------------|
B|-----3------2------3--------------|
G|-----2------2------0--------------|
D|-----0------2------0--------------|
A|------------0------x--------------|
E|--------------------3-------------|

Post-2nd Chorus: "A long way to go"
e|--------3-------------------|
B|-------3------2-------------|
G|-------0------2-------------|
D|-------2------2-------------|
A|-------2------0-------------|
E|-------0--------------------|


| h  hammer-on
| p  pull-off
| x  Mute note
===============================================================================

            
            
Suggest correction
Creating personal tab
Creating personal tab
You can edit any tab online and save it as your Personal.

You can edit, replace or remove any tab part or add personal notes – all changes will be seen only by you.

Personal tabs can be accessed anytime from any device, even offline.
Learn more »
Give kudos to tab author, rate the tab!
1 2 3 4 5
comments
print report bad tab
1 comment total.
0 reply
josh33allen 10 Jan 17, 2010 04:37 AM

Aye...I'm not that god at tabs so i'll let you put this in yours....the little thing he does before starting the second verse is:
e------------------------
b------------------------
g--4p2p0-----------------
d---------4p2p0-----0----
a---------------h2-------
e------------------------

guest
You may want to rate the tab now too:
select rating
Wanna post a correction for this tab? Suggest correction