Oops, an error
Loading. Please wait.

What Happened Tab

12,803 views 1 this week
1 commentread comment
1 2 3 4 5
x 3
add to favorites
launch autoscroll
font size
0
reset
how to read this tab
guitar tuner
Autoscroll
slow
fast
+/-
esc
set tempo
stop
Help us to improve Ultimate-Guitar.com Take our survey!
×
Author
-------------------------------------------------------------------------------
                             WHAT HAPPENED - Corey Smith
-------------------------------------------------------------------------------
Tabbed by: Jayrod

Tuning: Standard

Intro/Verse
e|-----------------------------------------------------------|
B|-----------------------------------------------------------|
G|--------------1-----------4--------2-----------4-----------|
D|-------------------------------------------------4---------|
A|----2-----------------------------0-----0---0h2------------|
E|------h4---0----(0)---4----(4)-----------------------------|


Prechorus
e|-----------------------------------------|
B|----5-------------5----------------------|
G|----6-----4------6-----4-----2-----------|
D|----6-----4------6-----4-----2-----------|
A|----/4-----2-----/4-----2-----0----------|
E|-----------------------------------------|


Chorus
e|----0-----0-----0-----0----0--------------------------|
B|----0-----0-----0-----0----0--------------------------|
G|----1-----4-----2-----4----x------repeat once---------|
D|----2-----6-----2-----6----4-----------then-----------|
A|----2-----6-----0-----6-----4-------------------------|
E|----0-----4-----------4-----2-------------------------|

e|----0----0----0----0------|
B|----0----0----0----0------|
G|----1----4----2----4------|
D|----2----6----2----4------|
A|----2----6----0----2------|
E|----0----4----------------|


After 2nd Chorus
e|----0----------0-----0-----|
B|----0----------0-----0-----|
G|----1-----6----1-----8-----|
D|----2-----7----2-----9-----|
A|----2-----7----2-----9-----|
E|----0----/5----0----/7-----|


Last Verse
e|---------------------------------------------0----0------|
B|---------------------5----------------------0----0-------|
G|-------1-----8------6-------4-------------2----4---------|
D|-------2-----8------6-------4-----x3-----2----4----------|
A|--------2-----6-----4----(0)2-------------0----2---------|
E|----0--0-------------------------------------------------|


Ending
"What happened, what happened..."
e|----0----0----0----0-----------0-0-0---0-0-0---0-0-0---0-0-0---0-----------|
B|----0----0----0----0-----------0-0-0---0-0-0---0-0-0---0-0-0---0-----------|
G|----1----4----2----4-----------4-4-4---2-2-2---4-4-4---x-x-x---1-----------|
D|----2----6----2----4----x2----4-4-4---2-2-2---6-6-6---4-4-4---2------------|
A|----2----6----0----2-----------2-2-2---0-0-0---6-6-6---4-4-4---2-----------|
E|----0----4------------------------------------------4-4-4---2-2-2---0------|


| /  slide up
| h  hammer-on
| x  Mute note
===============================================================================
Suggest correction
Give kudos to tab author, rate the tab!
1 2 3 4 5
comments
print report bad tab
1 comment total.
0 reply
Jayrod 390 Sep 23, 2010 03:13 PM

Everything here should be lined up (a chord) except for the beginning of the intro. So at the end of the intro that's a hammer onto a B chord.

Everything else should be lined up vertically so they all look like chords

guest
You may want to rate the tab now too:
select rating
Wanna post a correction for this tab? Suggest correction