Oops, an error
Loading. Please wait.

Put Your Records On Chords

version 2
version 2

Whole song

Interactive

67,857 views 84 this week
3 commentsread comments
1 2 3 4 5
x 5
add to favorites
launch autoscroll
font size
0
reset
transpose
0
reset
simplify chords
display chords
guitar tuner
backing track
0:00
0:00
×
Best way to learn
"Put Your Records On"
Autoscroll
slow
fast
+/-
esc
set tempo
stop
Author
Difficulty
intermediate
this is quite a tricky song so if your a begginer i suggest you dont try and play this!
effence! so here it is.......


CHORDS USED:

   Fmin  C#  A#/Bb  ?  Dm7  A  ?2  
 E9  DmM7  Bm
e---2----x-----1----x---x---x---x---9----x---x-----x---|
b---2----6-----2----2---7---x---7---7----7---6-----3---|
g---2----6-----3----2---6---6---6---7----7---6-----4---|
d---4----6-----3----1---7---7---7---7----6---7-----4---|
a---4----4-----x----2---5---7---6---7----7---5-----2---|
e---2----x-----x----x---x---5---x---x----0---x-----x---|

INTRO/VERSE:

it sounds good if you hit the strings with your hand in this part so if its marked (x) 
it them with your hand. this is optional. i think it gives it good rythem!

e--------------------------9-9-x------------------|
b--------------------------------7-x--------------|
g---------------6-6-------------------------------|
d----7-7-x-7-x------x-4-x--------0-x--7-7-x-7-x---|
a----0-0-x-0-x--6-6-x-6-x--7-7-x------0-0-x-0-x---|
e-------------------------------------------------|

PRE-CHORUS:

 Fmin    C#        A#/Bb                 ?
maby sometimes, we got it wrong, but its alright

    Dm7                             Dm7
the more things seem to change, the more they stay the same

oh, so dont you hesitate.

CHORUS:

 A                        ?2
girl put your records on, tell me your favourite song

 DM9                   E9
you go ahead let your hair down

A                        ?2
saphire and faded jeans, i hope you get your dreams,

 DM9                   E9
just go ahead let your hair down.


 Dm7                     DmM7
your gonna find yourself somwhere somehow

INBETWEEN BIT:

e--------------|
b--------------|
g--------------|
d--7-7-x-7-x---|
a--0-0-x-0-x---|
e--------------|

BRIDGE:


 Bm                          Bm
twas' more than i can take, pity for pitys sake

A#/Bb                      A#/Bb
some nights kept me awake, i thought that i was stronger

 Bm                            A#/Bb                     Bm
when you gonna realise, that you dont even have to try any longer

A#/Bb
do what you want to.


OUTRO:

 Dm7                     DmM7      A
your gonna find yourself somewhere somhow.


ORDER:

intro
verse
pre-chorus
chorus
inbetween bit
verse
inbetween bit
verse
pre-chorus
chorus
bridge
chorus x2
outro


any corretions/suggestions email me   jessica.blink182@gmail.com
thanks..............
Suggest correction
comments
print report bad tab
3 comments total.
0 reply
scrat-182 99 Apr 26, 2006 07:06 AM

im not being evil or anything but i would like to know why iv got 2 stars. i would just like to know what i did wrong. thnx

0 reply
Music_Kick 20 Apr 17, 2007 08:59 AM

very confusing!

-1 reply
rasharde1995 26 Dec 09, 2008 10:35 AM

U SEE NEXT TO THE ?2 PUT A-5
------|------|------|------|------|--------------------------- ------|--x---|------|------|------|--------------------------- ------|--x---|------|------|------|--------------------------- --x---|------|------|------|------|--------------------------- ------|------|------|------|------|--------------------------- ------|------|------|------|------|---------------------------

guest
You may want to rate the tab now too:
select rating
Wanna post a correction for this tab? Suggest correction