Oops, an error
Loading. Please wait.

Brimful Of Asha tab

version 3
version 3

Whole song

Interactive

5,043 views 1 this week
no commentswrite comment
1 2 3 4 5
2 more votes to show rating
add to favorites
×
Save as Personal and add changes to this tab that will be seen only by you. Learn more ›
×
You can save this tab as Personal to edit and correct it or add notes. All changes will be seen only by you. Learn more »
launch autoscroll
font size
0
reset
how to read this tab
guitar tuner
edit
Autoscroll
slow
fast
+/-
esc
set tempo
stop
Author
---------------------------------------------------------------------
BRIMFUL OF ASHA- Cornershop
---------------------------------------------------------------------
Tabbed by: Hannah Banana

Tuning: Standard

Well, most of the song is just this:..

e|------------------------------------------------------------------|
B|-------------------9-7--77----------------------------------------|
G|-------------------9-7--77----------------------------------------|
D|----7-77---7-75----9-7--77----------------------------------------|
A|----7-77---7-75----7-5--55----------------------------------------|
E|----5-55---5-53---------------------------------------------------|

…then, at about 2.20 minutes into the song:..

e|------------------------------------------------------------------|
B|---------7777-----------------------------------------------------|
G|---------7777-----------------------------------------------------|
D|----777--7777-----------------------------------------------------|
A|----777--5555-----------------------------------------------------|
E|----555-----------------------------------------------------------|

…aaaaand that’s pretty much it.

Enjoy :D

Let us know if any of it’s wrong x

            
            
Suggest correction
Creating personal tab
Creating personal tab
You can edit any tab online and save it as your Personal.

You can edit, replace or remove any tab part or add personal notes – all changes will be seen only by you.

Personal tabs can be accessed anytime from any device, even offline.
Learn more »
Give kudos to tab author, rate the tab!
1 2 3 4 5
comments
print report bad tab
guest
You may want to rate the tab now too:
select rating
Wanna post a correction for this tab? Suggest correction