Oops, an error
Loading. Please wait.

Masked Jackal Tab

version 1
version 1

Whole song

Interactive

3,748 views 9 this week
no commentswrite comment
1 2 3 4 5
accurate
x 4
add to favorites
launch autoscroll
font size
0
reset
how to read this tab
guitar tuner
Tab Pro tools
  • play this tab
  • loop segment
  • change instrument
  • show fretboard
  • metronome
×
Best way to learn
"Masked Jackal"
Autoscroll
slow
fast
+/-
esc
set tempo
stop
Contributor
Difficulty
advanced
--|-riff1---------------------------------------------------|--|
--|---------------------------------------------------------|--|
--|.------------------10-10-10-9---------------------------.|--|
-9|.------------------10-10-10-9---------------------------.|--|
-7|-----2------2------8--8--8--7------2------2------3-6-3-2-|--|
--|0000-0-0000-0-0000------------0000-0-0000-0-0000-1-4-1-0-|--|
___________
2.
--------------------------|--riff2-----------------------------|
--------------------------|------------------------------------|
-------------6---7----10-.|-----|.-----------------------------|
-5-2-3---5--6---7---10---.|-10-9|.----9-----10-----10-1010-----|
-3-0-1--5--4---5---8------|--8-7|-----7------8------8-8-8------|
-------3------------------|-----|0000---0000---0000------------|
                  ________________
                     1.   |  2. 12/8 time
--------------------------|---riff3----------------------------|
--------------------------|--------|---------------------------|
-------------------------.|--------|.--------------------------|
109----------------------.|-5-5-5-4|.----------542---420-------|
-87-------2-3/6-6-3-6-3-2-|-3-3-3-2|222-222-222---532---320----|
-----0000-0-1/4-4-1-4-1-0-|--------|---------------------------|
                  __________________________
                          1.    |  2.
--------------------------------|---------------|-riff2--------|
--------------------------------|---------------|-riff3--------|
---6-5-------------------3-----.|---------------|--------------|
-4-4-3-333-333-333----235--3-4-.|-320---20------|--------------|
-2-----------------235-----1-2--|----320--3-20--|--------------|
--------------------------------|-------------0-|--------------|

-12------------riff4------|--riff5--------------------3x-------|
-12-----------------------|------------------------------------|
.9--9--------------------.|------------------------------------|
.9--9---10-10109--109-9.--|-------.----------------------------|
-7--7-2--8-8--87---87-7---|-3/5-.-5-3/5-6-5--3-3---------------|
------0-------------------|-1/3-3-3-1/3-4-3--1-1-1111----------|


------------------------riff6-----------------------------------|
----------------------------------------------------------------|
----------------------.-----------------------------------------|
---------------..-..-..-----------------------------------------|
-3/5---5-3/5-6-56-78-9-----10------6------5------4-5----5-5-5-5-|
-1/3-3-3-1/3-4-34-56-7-8888-8-4444-4-3333-3-2222-2-333333-3-3-3-|
comments
print report bad tab
I want to post or [tab]
guest
You may want to rate the tab now too:
select rating
Please do not post tabs as comments. Select "correction" instead!