Oops, an error
Loading. Please wait.

Mistress Of Deception tab

version 1
version 1

Whole song

  • Thanks to the author Steve.

Interactive

by Coroner
34 views 1 this week
no commentswrite comment
1 2 3 4 5
3 more votes to show rating
add to favorites
×
Save as Personal and add changes to this tab that will be seen only by you. Learn more ›
×
You can save this tab as Personal to edit and correct it or add notes. All changes will be seen only by you. Learn more »
launch autoscroll
font size
0
reset
how to read this tab
guitar tuner
edit
Autoscroll
slow
fast
+/-
esc
set tempo
stop
About this tab version
Thanks to the author Steve. Was this info helpful? Yes No
MISTRESS OF DECEPTION
As recorded by Coroner
(From the 1989 Album NO MORE COLOR)
Copyright (c) Noise 1989
Arranged by Coroner
Transcribed by Steve Rubaszek
Version - 1.2 - 11-25-06
Gtr I (E A D G B E) - Rhythm 1
Gtr II (E A D G B E) - Rhythm 2

0:00
Q=80  Q=175
4/4           4/4
Gtrs I, II
                  PM--|      PM  PM------------|
e|-----------||-----------------------|--------------------------|
B|-----------||o----------------------|--------------------------|
G|-----------||-----------------------|--------------------------|
D|-----------||-----------------8-----|--------------------------|
A|-------7\--||o-0-0-0-0-0--0-0-6-0-0-|-0-0-0-0-0-6-5-6-8-6-5-6--|
E|-----------||-----------------------|--------------------------|

                                                             0:24
    PM--|      PM  PM|                                         PM       PM
                                                          4x
e|----------------------|---------------------------------||---------------|
B|----------------------|--------------------------------o||---------------|
G|----------------------|---------------------------------||-5----5--5-5---|
D|----------------8-----|---------------------------------||-5--x-5--5-5-x-|
A|-0-0-0-0-0--0-0-6-0-0-|-6-5-6-8-6-5-6-9-9-8-9-11-9-8-9-o||-3--x-3--3-3-x-|
E|----------------------|---------------------------------||---------------|

         PM         PM--|      PM  PM------------|
e|-------------|-----------------------|-------------------------|
B|-------------|o----------------------|-------------------------|
G|-6---3-------|-----------------------|-------------------------|
D|-6---3-----6-|-----------------8-----|-------------------------|
A|-4---1--3--6-|o-0-0-0-0-0--0-0-6-0-0-|-0-0-0-0-0-6-5-6-8-6-5-6-|
E|--------1--4-|-----------------------|-------------------------|

    PM--|      PM  PM|                                         PM       PM
                                                         3x
e|----------------------|---------------------------------||---------------|
B|----------------------|--------------------------------o||---------------|
G|----------------------|---------------------------------||-5----5--5-5---|
D|----------------8-----|---------------------------------||-5--x-5--5-5-x-|
A|-0-0-0-0-0--0-0-6-0-0-|-6-5-6-8-6-5-6-9-9-8-9-11-9-8-9-o||-3--x-3--3-3-x-|
E|----------------------|---------------------------------||---------------|

         PM       PM--|      PM  PM------------|
e|-------------|----------------------|-------------------------|
B|-------------|----------------------|-------------------------|
G|-6---3-------|----------------------|-------------------------|
D|-6---3-----6-|----------------8-----|-------------------------|
A|-4---1--3--6-|-0-0-0-0-0--0-0-6-0-0-|-0-0-0-0-0-6-5-6-8-6-5-6-|
E|--------1--4-|----------------------|-------------------------|

    PM--|      PM  PM--------|       PM          PM----|   PM----|
e|----------------------|---------------------|---------------------------|
B|----------------------|---------------------|---------------------------|
G|----------------------|---------------------|---------------------------|
D|----------------8-----|---------------------|---------------------------|
A|-0-0-0-0-0--0-0-6-0-0-|-------[7]-----6---5-|---------------------------|
E|----------------------|-0-0-0-----8-0---7---|-6-6-6-6-6-6-6-6-6-6-6-6-6-|

  PM--|       PM          PM----|   PM----|  ~~~   PM--|       PM
e|---------------------|--------------------------|----------------------|
B|---------------------|--------------------------|----------------------|
G|---------------------|--------------------------|----------------------|
D|---------------------|--------------------------|----------------------|
A|-------[7]-----6---5-|--------------------------|-------[7]-----6---5--|
E|-0-0-0-----8-0---7---|-3-3-3-3-3-3-3-3-3-3-[3]--|-0-0-0-----8-0---7----|

    PM----|   PM----|        PM--|       PM          PM----|   PM----|  ~~~
e|--------------------------|---------------------|--------------------------|
B|--------------------------|---------------------|--------------------------|
G|--------------------------|---------------------|--------------------------|
D|--------------------------|---------------------|--------------------------|
A|---------------------[7]--|-------[7]-----6---5-|--------------------------|
E|-6-6-6-6-6-6-6-6-6-6------|-0-0-0-----8-0---7---|-3-3-3-3-3-3-3-3-3-3-[3]--|

   1:01
e|----------------------------------|-------------------------------------|
B|o---------------------------------|-------------------------------------|
G|----------------------------------|--------7-9-10-9-7-------------------|
D|--------------6-7-9-7-6-----------|-7-9-10------------10-9-7------------|
A|o-------5-7-8-----------8-7-5-----|--------------------------8-7-5-7-8--|
E|--5-7-8-----------------------8-7-|-------------------------------------|

E|---------------------------------|-----------------------------------|
B|---------------------------------|---------------9-10-12-10-9-------o|
G|---------------------------------|--------7-9-10--------------10-9---|
D|-------------6-7-9-7-6-----------|-7-9-10----------------------------|
A|-------5-7-8-----------8-7-5-----|----------------------------------o|
E|-5-7-8-----------------------8-7-|-----------------------------------|

[1:12]
Gtrs I, II
e|------------|----------------|-----------|--------|
B|o-----------|----------------|-----------|--------|
G|-------9----|-(9)----9S7--10-|-9---------|--------|
D|-------9----|-(9)----9S7--10-|-9---------|--------|
A|o------7----|-(7)----7S5---8-|-7---------|--------|
E|--0---------|----------------|------0----|-(0)----|

e|-----------|----------------|-----------|---------|
B|-----------|----------------|-----------|--------o|
G|------9----|-(9)-----10--10-|-9---------|---------|
D|------9----|-(9)-----10--10-|-9---------|---------|
A|------7----|-(7)------8---8-|-7---------|--------o|
E|-0---------|----------------|------0----|-(0)-----|

[1:41]
[Gtrs I, II]
e|----------------------------|------------------|
B|----------------------------|------------------|
G|----------------------------|------------------|
D|-9----------6-5-4-3---------|-9----------6--6--|
A|-7------------------5-6-7-8-|-7----------5--5--|
E|----0-0-0-0-----------------|----0-0-0-0-------|

e|----------------------------|--------------|
B|----------------------------|--------------|
G|----------------------------|-------4--7---|
D|-9----------6-5-4-3---------|-9--6--3--6---|
A|-7------------------5-6-7-8-|-7--5---------|
E|----0-0-0-0-----------------|--------------|

[1:46]
      PM--|      PM  PM------------|                   PM--|      PM  PM|
e|-----------------------|-------------------------|----------------------|
B|o----------------------|-------------------------|----------------------|
G|-----------------------|-------------------------|----------------------|
D|-----------------8-----|-------------------------|----------------8-----|
A|o-0-0-0-0-0--0-0-6-0-0-|-0-0-0-0-0-6-5-6-8-6-5-6-|-0-0-0-0-0--0-0-6-0-0-|
E|-----------------------|-------------------------|----------------------|

                                          PM       PM         PM
e|-------------------------------||-||----------------|-------------|
B|------------------------------o||-||o---------------|-------------|
G|-------------------------------||-||--5----5--5-5---|-6---3-------|
D|-------------------------------||-||--5--x-5--5-5-x-|-6---3-----6-|
A|-6-5-6-8-6-5-6-9-8-9-11-9-8-9-o||-||o-3--x-3--3-3-x-|-4---1--3--6-|
E|-------------------------------||-||----------------|--------1--4-|

    PM--|      PM  PM------------|
e|----------------------|--------------------------|
B|----------------------|-------------------------o|
G|----------------------|--------------------------|
D|----------------8-----|--------------------------|
A|-0-0-0-0-0--0-0-6-0-0-|-0-0-0-0-0-6-5-6-8-6-5-6-o|
E|----------------------|--------------------------|

        PM--|      PM  PM|
e|-||-------------------------|
B|-||o------------------------|
G|-||-------------------------|
D|-||-----------------8-------|
A|-||o-0-0-0-0-0--0-0-6-0-0---|
E|-||-------------------------|

  PM--|       PM            PM----|   PM----|         PM--|       PM
e|----------------------||---------------------------|---------------------|
B|---------------------o||---------------------------|---------------------|
G|----------------------||---------------------------|---------------------|
D|----------------------||---------------------------|---------------------|
A|-------[7]-----5---5-o||---------------------------|-------[7]-----6---5-|
E|-0-0-0-----8-0---6----||-6-6-6-6-6-6-6-6-6-6-6-6-6-|-0-0-0-----8-0---7---|

    PM----|   PM----|  ~~~   PM--|       PM          PM----|   PM----|
e|--------------------------|---------------------|--------------------------|
B|--------------------------|---------------------|--------------------------|
G|--------------------------|---------------------|--------------------------|
D|--------------------------|---------------------|---------------------[8]--|
A|--------------------------|-------[7]-----6---5-|--------------------------|
E|-3-3-3-3-3-3-3-3-3-3-[3]--|-0-0-0-----8-0---7---|-6-6-6-6-6-6-6-6-6-6------|

  PM--|       PM          PM----|   PM----|
e|---------------------|------------------------|
B|---------------------|------------------------|
G|---------------------|------------------------|
D|---------------------|------------------------|
A|-------[7]-----6---5-|------------------------|
E|-0-0-0-----8-0---7---|-3-3-3-3-3-3-3-3-3-3-3--|

[2:20]
Q=190
$
4/4
      PM------|       PM----|             PM----------------------|
e|------------------------|-----------------------|------------------|
B|o-----------------------|-----------------------|-----------------o|
G|------------------------|-----------------------|------------------|
D|------------------------|---3-----3-------------|------------------|
A|o-2-----------3---------|---1p(0)-1p(0)---------|---1-3-3-1-3-3-1-o|
E|--0-0-0-0-0-0-1p(0)-0-0-|-0-------------0-0-0-0-|-0----------------|

[2:28]
      N.C.
      PM----|         PM------|         PM----|           PM--------|
e|----------------------|-----------------------|-----------------------|
B|o---------------------|-----------------------|-----------------------|
G|----------------------|-----------------------|-----------------------|
D|--4---------------4---|-----------------------|-----------------------|
A|o-4---------3p(2)-----|-------3p(2)-3---------|-3p(2)-3---------------|
E|--2-2-2-2-2---------2-|-2-2-2---------2-2-2-2-|---------1-1-1-1-1-1---|

                                                                D.S.
    PM----|         PM------|         PM----|           PM----|
e|---------------------|-----------------------|-----------------------|
B|---------------------|-----------------------|----------------------o|
G|---------------------|-----------------------|-----------------------|
D|-4---------------4---|-----------------------|-----------------[3]---|
A|-4---------3p(2)-----|-------3p(2)-3---------|-3p(2)-3--------------o|
E|-2-2-2-2-2---------2-|-2-2-2---------2-2-2-2-|---------1-1-1-1-------|

   3:08
                        Q=160           Q=180
e|----------------------|---------------|---------------------|
B|o---------------------|---------------|---------------------|
G|----------------------|---------------|---------------------|
D|--/4--2---------------|-------------2-|-/7--5---------------|
A|o--------4-3-2--------|------2--3-4---|--------7-6-5--------|
E|---------------5--(5)-|-2--5----------|--------------8--(8)-|

[3:21]
  Q=160                           Q=175
                                        PM--|      PM  PM|
e|----------------||---------------||-----------------------|
B|---------------o||---------------||o----------------------|
G|----------------||---------------||-----------------------|
D|-------------5--||-7--5----------||-----------------8-----|
A|------5--6-7---o||------7--6-5---||o-0-0-0-0-0--0-0-6-0-0-|
E|-5--8-----------||-------------8-||-----------------------|

  PM------|                   PM--|      PM  PM|
e|-------------------------|----------------------|
B|-------------------------|----------------------|
G|-------------------------|----------------------|
D|-------------------------|----------------8-----|
A|-0-0-0-0-0-6-5-6-8-6-5-6-|-0-0-0-0-0--0-0-6-0-0-|
E|-------------------------|----------------------|
                                   
e|----------------------------------|
B|---------------------------------o|
G|----------------------------------|
D|----------------------------------|
A|-6-5-6-8-6-5-6-9-9-8-9-11-9-8-9--o|
E|----------------------------------|x4

     PM       PM         PM       PM--|      PM  PM|
e|---------------|-------------|----------------------|
B|---------------|-------------|----------------------|
G|-5----5--5-5---|-6---3-------|----------------------|
D|-5--x-5--5-5-x-|-6---3-----6-|----------------8-----|
A|-3--x-3--3-3-x-|-4---1--3--6-|-0-0-0-0-0--0-0-6-0-0-|
E|---------------|--------1--4-|----------------------|

  PM------|                   PM--|      PM  PM--------|       PM
e|-------------------------|----------------------|----------------------|
B|-------------------------|----------------------|----------------------|
G|-------------------------|----------------------|----------------------|
D|-------------------------|----------------8-----|----------------------|
A|-0-0-0-0-0-6-5-6-8-6-5-6-|-0-0-0-0-0--0-0-6-0-0-|-------[7]-----6---5--|
E|-------------------------|----------------------|-0-0-0-----8-0---7----|

    PM----|   PM----|         PM--|       PM
e|---------------------------|---------------------|
B|---------------------------|---------------------|
G|---------------------------|---------------------|
D|---------------------------|---------------------|
A|---------------------------|-------[7]-----6---5-|
E|-6-6-6-6-6-6-6-6-6-6-6-6-6-|-0-0-0-----8-0---7---|

    PM----|   PM----|  ~~~   PM--|       PM
e|--------------------------|----------------------|
B|--------------------------|----------------------|
G|--------------------------|----------------------|
D|--------------------------|----------------------|
A|--------------------------|-------[7]-----6---5--|
E|-3-3-3-3-3-3-3-3-3-3-[3]--|-0-0-0-----8-0---7----|

    PM----|   PM----|        PM--|       PM          PM----|   PM----|  ~~~
e|--------------------------|---------------------|--------------------------|
B|--------------------------|---------------------|--------------------------|
G|--------------------------|---------------------|--------------------------|
D|--------------------------|---------------------|--------------------------|
A|---------------------[7]--|-------[7]-----6---5-|--------------------------|
E|-6-6-6-6-6-6-6-6-6-6------|-0-0-0-----8-0---7---|-3-3-3-3-3-3-3-3-3-3-[3]--|

[4:00]
e|----------------------------------|-------------------------------------|
B|o---------------------------------|-------------------------------------|
G|----------------------------------|--------7-9-10-9-7-------------------|
D|--------------6-7-9-7-6-----------|-7-9-10------------10-9-7------------|
A|o-------5-7-8-----------8-7-5-----|--------------------------8-7-5-7-8--|
E|--5-7-8-----------------------8-7-|-------------------------------------|

e|---------------------------------|-----------------------------------|
B|---------------------------------|---------------9-10-12-10-9-------o|
G|---------------------------------|--------7-9-10--------------10-9---|
D|-------------6-7-9-7-6-----------|-7-9-10----------------------------|
A|-------5-7-8-----------8-7-5-----|----------------------------------o|
E|-5-7-8-----------------------8-7-|-----------------------------------|

[4:11]
Q=170
e|------------|----------------|-----------|--------|
B|o-----------|----------------|-----------|--------|
G|-------9----|-(9)----9S7--10-|-9---------|--------|
D|-------9----|-(9)----9S7--10-|-9---------|--------|
A|o------7----|-(7)----7S5---8-|-7---------|--------|
E|--0---------|----------------|------0----|-(0)----|
                                                   
e|-----------|----------------|-----------|---------|
B|-----------|----------------|-----------|--------o|
G|------9----|-(9)-----10--10-|-9---------|---------|
D|------9----|-(9)-----10--10-|-9---------|---------|
A|------7----|-(7)------8---8-|-7---------|--------o|
E|-0---------|----------------|------0----|-(0)-----|x5

Tablature Legend
----------------
 h   - hammer-on
 p   - pull-off
 b   - bend
 pb  - pre-bend
 r   - bend release (if no number after the r, then release immediately)
 /\  - slide into or out of (from/to "nowhere")
 s   - legato slide
 S   - shift slide
  - natural harmonic
[n]  - artificial harmonic
n(n) - tapped harmonic
 ~   - vibrato
 tr  - trill
 T   - tap
 TP  - trem. picking
 PM  - palm muting
\n/  - tremolo bar dip; n = amount to dip
 \n  - tremolo bar down
 n/  - tremolo bar up
/n\  - tremolo bar inverted dip
 =   - hold bend; also acts as connecting device for hammers/pulls
 <>  - volume swell (louder/softer)
 x   - on rhythm slash represents muted slash
 o   - on rhythm slash represents single note slash

Misc Legend
-----------
 |  - bar
||  - double bar
||o - repeat start
o|| - repeat end
*|  - double bar (ending)
 :  - bar (freetime)
 $  - Segno
 &  - Coda
Tempo markers -  = BPM(8/16=s8/s16),
where s8 = swing 8ths, s16 = swing 16ths

            
            
Suggest correction
Creating personal tab
Creating personal tab
You can edit any tab online and save it as your Personal.

You can edit, replace or remove any tab part or add personal notes – all changes will be seen only by you.

Personal tabs can be accessed anytime from any device, even offline.
Learn more »
Give kudos to tab author, rate the tab!
1 2 3 4 5
comments
print report bad tab
guest
You may want to rate the tab now too:
select rating
Wanna post a correction for this tab? Suggest correction