Oops, an error
Loading. Please wait.

Read My Scars tab

by Coroner
28 views 3 this week
no commentswrite comment
1 2 3 4 5
3 more votes to show rating
add to favorites
×
Save as Personal and add changes to this tab that will be seen only by you. Learn more ›
×
You can save this tab as Personal to edit and correct it or add notes. All changes will be seen only by you. Learn more »
launch autoscroll
font size
0
reset
how to read this tab
guitar tuner
edit
Autoscroll
slow
fast
+/-
esc
set tempo
stop
About this tab version
Thanks to the tabbers Steve and Greg. Was this info helpful? Yes No
READ MY SCARS
As recorded by Coroner
(From the 1991 Album NO MORE COLOR)
(c) 1991 Noise Records
Arranged by Coroner
Transcribed by Steve Rubaszek and Greg D.
Version 2.0 - Jan 2009
Email:
Thrasher502@hotmail.com
sentience666@hotmail.com
Gtr I (E A D G B E) - Rhythm
Gtr II (E A D G B E) - Fill
Gtr III (E A D G B E) - Rhythm II

0:00
Q=200
4/4
Gtr I
    PM----|   PM  PM--------|
e|----------------------|------------|---------|------|
B|o---------------------|------------|---------|-----o|
G|----------------------|------------|---------|------|
D|--------------1-------|-----1------|---------|------|
A|o-------------1-------|-----1------|---------|-----o|
E|--0-0-0-1-1-0---0-0-0-|-1-0--------|---------|------|

  PM----|   PM  PM--------|
e|---------------------|-------------|
B|---------------------|-------------|
G|---------------------|-------------|
D|-------------1-------|-----1-------|
A|-------------1-------|-----1---3---|
E|-0-0-0-1-1-0---0-0-0-|-1-0-----1---|

     PM----|   PM--------|   PM|
e|--------------------|-----------------------|
B|o-------------------|----------------------o|
G|--------------------|-----------------------|
D|----------1---------|---1-----------3h6p3---|
A|o---------1---------|---1-----2h5p2--------o|
E|--0-0-1-0---0-0-0-1-|-0---0-0---------------|

  PM----|   PM--------|   PM|
e|-------------------|---------------------|
B|-------------------|---------------------|
G|-------------------|---------------------|
D|---------1---------|---1-----------3h6p3-|
A|---------1---------|---1-----2h5p2-------|
E|-0-0-1-0---0-0-0-1-|-0---0-0-------------|

                       \1               \1
  PM----|   PM----|
e|-------------------|------------------------|
B|-------------------|------------------------|
G|-------------------|-<3>----(<3>)b8r=(<3>)--|
D|---------1---------|------------------------|
A|---------1---------|------------------------|
E|-0-0-1-0---0-0-0-1-|------------------------|

0:23
     PM----|   PM--------|   PM|
e|--------------------|---------------------|
B|o-------------------|---------------------|
G|--------------------|---------------------|
D|----------1---------|---1-----------3h6p3-|
A|o---------1---------|---1-----2h5p2-------|
E|--0-0-1-0---0-0-0-1-|-0---0-0-------------|

  PM----|   PM--------|   PM|
e|-------------------|------------------------|
B|-------------------|-----------------------o|
G|-------------------|------------------------|
D|---------1---------|---1-----------3h6p3----|
A|---------1---------|---1-----2h5p2---------o|
E|-0-0-1-0---0-0-0-1-|-0---0-0----------------|

0:33
     PM|   PM|        PM|   PM|        PM|   PM|        PM|   PM|
e|----------------|----------------|----------------|----------------|
B|----------------|----------------|----------------|----------------|
G|----------------|----------------|----------------|----------------|
D|-5-----5-----5--|----------------|-5-----5-----5--|-------6-----6--|
A|-7-7-7-7-7-7-7--|-8-----8-----8--|-7-7-7-7-7-7-7--|-8-----4-4-4-4--|
E|----------------|-6-6-6-6-6-6-6--|----------------|-6-6-6----------|

e|---------------------------------|---------------------------------
B|---------------------------------|---------------------------------
G|---------------------------------|---------------------------------
D|-8p4---4-8p4h8p4---4-8p4h8p4---4-|---------------------------------
A|-----6-----------6-----------6---|-7-3---3-7p3h7p3---3-7p3h7p3---3-
E|---------------------------------|-----5-----------5-----------5---

e|---------------------------------|---------------------------------|
B|---------------------------------|---------------------------------|
G|---------------------------------|-9-5---5-9p5h9p5---5-9p5h9p5---5-|
D|-8p4---4-8p4h8p4---4-8p4h8p4---4-|-----7-----------7-----------7---|
A|-----6-----------6-----------6---|---------------------------------|
E|---------------------------------|---------------------------------|

     PM----|   PM--------|   PM                                    
e|--------------------|----------------------|
B|o-------------------|---------------------o|
G|--------------------|----------------------|
D|----------1---------|---1-----------3h6p3--|
A|o---------1---------|---1-----2h5p2-------o|
E|--0-0-1-0---0-0-0-1-|-0---0-0--------------|x3

                            \2.5
  PM----|   PM----|
e|-------------------|---------------------|
B|-------------------|---------------------|
G|-------------------|---------------------|
D|---------1---------|---------------------|
A|---------1---------|---------------------|
E|-0-0-1-0---0-0-0-1-|-[3]--(3)------(3)---|

     PM----|   PM--------|   PM|
e|--------------------|---------------------|
B|o-------------------|---------------------|
G|--------------------|---------------------|
D|----------1---------|---1-----------3h6p3-|
A|o---------1---------|---1-----2h5p2-------|
E|--0-0-1-0---0-0-0-1-|-0---0-0-------------|

  PM----|   PM--------|   PM|
e|-------------------|------------------------|
B|-------------------|-----------------------o|
G|-------------------|------------------------|
D|---------1---------|---1-----------3h6p3----|
A|---------1---------|---1-----2h5p2---------o|
E|-0-0-1-0---0-0-0-1-|-0---0-0----------------|

e|---------------------------------|---------------------------------|
B|---------------------------------|---------------------------------|
G|---------------------------------|---------------------------------|
D|-8p4---4-8p4h8p4---4-8p4h8p4---4-|---------------------------------|
A|-----6-----------6-----------6---|-7-3---3-7p3h7p3---3-7p3h7p3---3-|
E|---------------------------------|-----5-----------5-----------5---|

e|---------------------------------|---------------------------------|
B|---------------------------------|---------------------------------|
G|---------------------------------|-9-5---5-9p5h9p5---5-9p5h9p5---5-|
D|-8p4---4-8p4h8p4---4-8p4h8p4---4-|-----7-----------7-----------7---|
A|-----6-----------6-----------6---|---------------------------------|
E|---------------------------------|---------------------------------|

[Gtr I]
e|---------------------------------------|
B|---------------------------------------|
G|---------------------------------------|
D|--8p4----4-8p=4h8p=4---4--8p4h=8p4---4-|
A|------6--------------6-------------6---|
E|---------------------------------------|

[Gtr II]
e|---------------------------------------|
B|-11-7---11-7-11-7-11---7-11-7-11-7---7-|
G|------8--------------8-------------8---|
D|---------------------------------------|
A|---------------------------------------|
E|---------------------------------------|

e|-----------------------------------------|
B|-----------------------------------------|
G|-----------------------------------------|
D|-----------------------------------------|
A|--7-3----3--7p3h=7p3----3--7p3h=7p3----3-|
E|-------5--------------5--------------5---|

e|-12-8----8-12-8-12-8----8-12-8-12-8----8-|
B|------10-------------10-------------10---|
G|-----------------------------------------|
D|-----------------------------------------|
A|-----------------------------------------|
E|-----------------------------------------|

e|-------------------------------------------------|
B|-------------------------------------------------|
G|-------------------------------------------------|
D|--8p=4-----4--8p=4h=8p=4-----4--8p=4h=8p=4-----4-|
A|--------6-----------------6-----------------6----|
E|-------------------------------------------------|

e|-18-14----14-18-14-18-14----14-18-14-18-14----14-|
B|-------16----------------16----------------16----|
G|-------------------------------------------------|
D|-------------------------------------------------|
A|-------------------------------------------------|
E|-------------------------------------------------|

e|-----------------------------------------|
B|-----------------------------------------|
G|--9-5----5--9p5h=9p5----5--9p5h=9p5----5-|
D|-------7--------------7--------------7---|
A|-----------------------------------------|
E|-----------------------------------------|

e|-12-8----8-12-8-12-8----8-12-8-12-8----8-|
B|------10-------------10-------------10---|
G|-----------------------------------------|
D|-----------------------------------------|
A|-----------------------------------------|
E|-----------------------------------------|

1:12
Gtr I
       PM|   PM|        PM|   PM|        PM|   PM|        PM|   PM|
e|-----------------|----------------|----------------|-----------------|
B|o----------------|----------------|----------------|-----------------|
G|-----------------|----------------|----------------|-----------------|
D|--5-----5-----5--|----------------|-5-----5-----5--|-------2-----2---|
A|o-7-7-7-7-7-7-7--|-4-----4-----4--|-7-7-7-7-7-7-7--|-4-----4-4-4-4---|
E|-----------------|-6-6-6-6-6-6-6--|----------------|-6-6-6-----------|

  PM----|                  PM|
e|----------------------|----------------------|
B|----------------------|----------------------|
G|----------------------|----------------------|
D|----------------------|-5-----5--------------|
A|-4-----4--------------|-3-3-3-3--3-5-3-6-5-3-|
E|-2-2-2-2--2-4-2-5-4-2-|----------------------|

  PM----|
e|----------------------|-----------------------|
B|----------------------|----------------------o|
G|----------------------|-----------------------|
D|----------------------|-----------------------|
A|-4-----4--------------|-7-----7--------------o|
E|-2-2-2-2--2-4-2-5-4-2-|-5-5-5-5--5-6-5-8-6-5--|

[1:32]
    PM----|   PM--------|   PM|                 PM----|   PM----|
e|--------------------|----------------------||--------------------|
B|o-------------------|---------------------o||--------------------|
G|--------------------|----------------------||--------------------|
D|----------1---------|---1-----------3h6p3--||---------1----------|
A|o---------1---------|---1-----2h5p2-------o||---------1----------|
E|--0-0-1-0---0-0-0-1-|-0---0-0--------------||-0-0-1-0---0-0-1-0--|x3

e|--------------|---------------|---------------|---------------|
B|--------------|---------------|---------------|---------------|
G|--------------|---------------|-----------11--|------11---14--|
D|----------10--|------10---13--|-10---13----9--|-13----9---12--|
A|-9---12----8--|-12----8---11--|--8---11-------|-11------------|
E|-7---10-------|-10------------|---------------|---------------|

e|-----------|-------------|-----------|-------------|
B|-----------|-------------|-----------|-------------|
G|-----------|-------------|-----------|-------------|
D|-----------|-------------|-----------|-------------|
A|-12--------|-------------|-12--------|-------------|
E|-----------|-13----10----|-----------|-13----10----|

e|----------|------------|----------|------------|
B|----------|------------|----------|------------|
G|----------|------------|----------|------------|
D|----------|------------|----------|------------|
A|-9--------|------------|-9--------|------------|
E|----------|-10----7----|----------|-10----7----|

2:03
Q=140
       PM|   PM|              PM|   PM|
e|-----------------------|-----------------------|
B|o----------------------|----------------------o|
G|--------------10-9-----|-------------10-9------|
D|--9-----9------8-7--10-|-9-----9------8-7--10--|
A|o-7-7-7-7-7-7--------8-|-7-7-7-7-7-7--------8-o|
E|-----------------------|-----------------------|

      PM|    PM|                PM|    PM|
e|-------------------------|-------------------------|
B|-------------------------|-------------------------|
G|---------------12-11-----|---------------12-11-----|
D|-11-----11-----10--9--12-|-11-----11-----10--9--12-|
A|--9-9-9--9-9-9--------10-|--9-9-9--9-9-9--------10-|
E|-------------------------|-------------------------|

     PM|   PM|              PM|   PM|
e|----------------------|----------------------|
B|----------------------|----------------------|
G|-------------10-9-----|-------------10-9-----|
D|-9-----9------8-7--10-|-9-----9------8-7--10-|
A|-7-7-7-7-7-7--------8-|-7-7-7-7-7-7--------8-|
E|----------------------|----------------------|

e|-----------------|---------------|
B|-----------------|---------------|
G|---------10-9----|---------10----|
D|-9-10-12--8-7-10-|-9-10-12--8----|
A|-7--8-10-------8-|-7--8-10-------|
E|-----------------|---------------|

6/8
Gtr I
e|--------------------------------------|
B|o-------------------------------------|
G|--------------------------------------|
D|------------------9-10--9-------------|
A|o--------7--9-10----------10--9--7----|
E|---7--8-----------------------------8-|

[Gtr III]
e|--------------------------------------|
B|o-------------------------------------|
G|-----------------16-17-16-------------|
D|--------14-16-17----------17-16-14----|
A|o-14-15----------------------------15-|
E|--------------------------------------|

e|-------------------------------------|---------------------------------|
B|-------------------------------------|---------------------------------|
G|-------------------------------------|---------------------------------|
D|-----------------9-10--9-------------|--------------3--4--3------------|
A|--------7--9-10----------10--9--7----|-----1--3--4-----------4--3-1----|
E|--7--8-----------------------------8-|-1-2--------------------------2--|

e|-------------------------------------|---------------------------------|
B|-------------------------------------|---------------------------------|
G|----------------16-17-16-------------|-------------10-11-10------------|
D|-------14-16-17----------17-16-14----|-----8-10-11----------11-10-8----|
A|-14-15----------------------------15-|-8-9--------------------------9--|
E|-------------------------------------|---------------------------------|

e|--------------------------------|-------------------------------------|
B|--------------------------------|-------------------------------------|
G|--------------------------------|-------------------------------------|
D|--------------3--4--3-----------|-----------------9-10--9-------------|
A|-----1--3--4-----------4--3-1---|--------7--9-10----------10--9--7----|
E|-1-2--------------------------2-|--7--8-----------------------------8-|

e|--------------------------------|-------------------------------------|
B|--------------------------------|-------------------------------------|
G|-------------10-11-10-----------|----------------16-17-16-------------|
D|-----8-10-11----------11-10-8---|-------14-16-17----------17-16-14----|
A|-8-9--------------------------9-|-14-15----------------------------15-|
E|--------------------------------|-------------------------------------|

e|--------------------------------------|
B|--------------------------------------|
G|--------------------------------------|
D|-----------------9-10--9--------------|
A|--------7--9-10----------10--9--7-----|
E|--7--8-----------------------------8--|

e|--------------------------------------|
B|--------------------------------------|
G|----------------16-17-16--------------|
D|-------14-16-17----------17-16-14-----|
A|-14-15----------------------------15--|
E|--------------------------------------|

e|--------------------------------|
B|--------------------------------|
G|--------------------------------|
D|--------------3--4--3-----------|
A|-----1--3--4-----------4--3-1---|
E|-1-2--------------------------2-|

e|--------------------------------|
B|--------------------------------|
G|-------------10-11-10-----------|
D|-----8-10-11----------11-10-8---|
A|-8-9--------------------------9-|
E|--------------------------------|

Q=190
                                              4/4
e|--------------------------------------||-||-------------------------|
B|-------------------------------------o||-||o------------------------|
G|--------------------------------------||-||-------------------------|
D|-----------------6--7--6--------------||-||-------------------------|
A|--------4--6--7-----------7--6--4----o||-||o------------------------|
E|--4--5-----------------------------5--||-||--0--0-0-0-0-0--0-0-0-0--|

e|--------------------------------------||-||-------------------------|
B|-------------------------------------o||-||o------------------------|
G|----------------13-14-13--------------||-||-------------------------|
D|-------11-13-14----------14-13-11-----||-||-------------------------|
A|-11-12----------------------------12-o||-||o------------------------|
E|--------------------------------------||-||--0--0-0-0-0-0--0-0-0-0--|

e|----------------|-----------------------|
B|----------------|-----------------------|
G|-9---8--11--10--|-----------------------|
D|-8---9--10--11--|-----------------------|
A|-7--10---9--12--|-----------------------|
E|----------------|-0--0-0-0-0-0--0-0-0-0-|

  PM--|    PM--|
e|--------------------|-------------------------|
B|--------------------|-------------------------|
G|-------9--------10--|-------------------------|
D|-------8--------11--|-------------------------|
A|-------7--------12--|-------------------------|
E|-0-0-0----0-0-0-----|-0--0-0-0-0-0--0-0-0-0---|

                                         PM--|     PM--|
e|----------------|---------------------|----------------------|
B|----------------|---------------------|---------------------o|
G|-9---8--11--10--|------------------9--|-------10--------9----|
D|-8---9--10--11--|------------------8--|-------11--------8----|
A|-7--10---9--12--|------------------7--|-------12--------7---o|
E|----------------|-0--0-0-0-0-0-0-0----|-0-0-0-----0-0-0------|

      PM--|     PM--|      PM--|     PM----
e|--------------------|--------------------|
B|--------------------|--------------------|
G|-9--------10--------|-9--------10--------|
D|-8--------11--------|-8--------11--------|
A|-7--------12--------|-7--------12--------|
E|----0-0-0-----0-0-0-|----0-0-0-----0-0-0-|

[3:02]
 ---------|   PM--------|   PM|
e|--------------------|------------------------|
B|o-------------------|-----------------------o|
G|--------------------|------------------------|
D|----------1---------|---1-----------3h6p3----|
A|o---------1---------|---1-----2h5p2---------o|
E|--0-0-0-0---0-0-0-0-|-0---0-0----------------|x3

[2.5]
  PM----|   PM----|
e|-------------------|-----------------------------------------|
B|-------------------|-----------------------------------------|
G|-------------------|-<5>--(<5>)-----(<5>)--|
D|---------1---------|-----------------------------------------|
A|---------1---------|-----------------------------------------|
E|-0-0-1-0---0-0-0-1-|-----------------------------------------|

     PM----|   PM--------|   PM
e|--------------------|----------------------|
B|o-------------------|---------------------o|
G|--------------------|----------------------|
D|----------1---------|---1-----------3h6p3--|
A|o---------1---------|---1-----2h5p2-------o|
E|--0-0-0-0---0-0-0-0-|-0---0-0--------------|x4

e|---------------------------------|---------------------------------|
B|---------------------------------|---------------------------------|
G|---------------------------------|---------------------------------|
D|-8p4---4-8p4h8p4---4-8p4h8p4---4-|---------------------------------|
A|-----6-----------6-----------6---|-7-3---3-7p3h7p3---3-7p3h7p3---3-|
E|---------------------------------|-----5-----------5-----------5---|

e|---------------------------------------|
B|-11-7---11-7-11-7-11---7-11-7-11-7---7-|
G|------8--------------8-------------8---|
D|---------------------------------------|
A|---------------------------------------|
E|---------------------------------------|

e|-12-8----8-12-8-12-8----8-12-8-12-8----8-|
B|------10-------------10-------------10---|
G|-----------------------------------------|
D|-----------------------------------------|
A|-----------------------------------------|
E|-----------------------------------------|

[Gtr I]
e|---------------------------------------|
B|---------------------------------------|
G|---------------------------------------|
D|--8p4----4-8p=4h8p=4---4--8p4h=8p4---4-|
A|------6--------------6-------------6---|
E|---------------------------------------|

[Gtr II]
e|---------------------------------------|
B|-11-7---11-7-11-7-11---7-11-7-11-7---7-|
G|------8--------------8-------------8---|
D|---------------------------------------|
A|---------------------------------------|
E|---------------------------------------|

e|-----------------------------------------|
B|-----------------------------------------|
G|-----------------------------------------|
D|-----------------------------------------|
A|--7-3----3--7p3h=7p3----3--7p3h=7p3----3-|
E|-------5--------------5--------------5---|
|
e|-12-8----8-12-8-12-8----8-12-8-12-8----8-|
B|------10-------------10-------------10---|
G|-----------------------------------------|
D|-----------------------------------------|
A|-----------------------------------------|
E|-----------------------------------------|

e|-------------------------------------------------|
B|-11--7----11--7-11--7-11-----7-11--7-11--7-----7-|
G|--------8-----------------8-----------------8----|
D|-------------------------------------------------|
A|-------------------------------------------------|
E|-------------------------------------------------|

e|-18-14----14-18-14-18-14----14-18-14-18-14----14-|
B|-------16----------------16----------------16----|
G|-------------------------------------------------|
D|-------------------------------------------------|
A|-------------------------------------------------|
E|-------------------------------------------------|

e|-12-8----8-12-8-12-8----8-12-8-12-8----8-|
B|------10-------------10-------------10---|
G|-----------------------------------------|
D|-----------------------------------------|
A|-----------------------------------------|
E|-----------------------------------------|

e|-12-8----8-12-8-12-8----8-12-8-12-8----8-|
B|------10-------------10-------------10---|
G|-----------------------------------------|
D|-----------------------------------------|
A|-----------------------------------------|
E|-----------------------------------------|

3:31
Gtr I
       PM|   PM|        PM|   PM|        PM|   PM|        PM|   PM|
e|-----------------|----------------|----------------|-----------------|
B|o----------------|----------------|----------------|-----------------|
G|-----------------|----------------|----------------|-----------------|
D|--5-----5-----5--|----------------|-5-----5-----5--|-------2-----2---|
A|o-7-7-7-7-7-7-7--|-4-----4-----4--|-7-7-7-7-7-7-7--|-4-----4-4-4-4---|
E|-----------------|-6-6-6-6-6-6-6--|----------------|-6-6-6-----------|

  PM----|                  PM|
e|----------------------|----------------------|
B|----------------------|----------------------|
G|----------------------|----------------------|
D|----------------------|-5-----5--------------|
A|-4-----4--------------|-3-3-3-3--3-5-3-6-5-3-|
E|-2-2-2-2--2-4-2-5-4-2-|----------------------|

  PM----|          
e|----------------------|-----------------------|
B|----------------------|----------------------o|
G|----------------------|-----------------------|
D|----------------------|-----------------------|
A|-4-----4--------------|-7-----7--------------o|
E|-2-2-2-2--2-4-2-5-4-2-|-5-5-5-5--5-6-5-8-6-5--|x4

    PM----|   PM--------|   PM|                 PM----|   PM--|
e|--------------------|----------------------||-----------------|----------|
B|o-------------------|---------------------o||-----------------|----------|
G|--------------------|----------------------||-----------------|----------|
D|----------1---------|---1-----------3h6p3--||---------1-------|----------|
A|o---------1---------|---1-----2h5p2-------o||---------1-------|-----2----|
E|--0-0-1-0---0-0-0-1-|-0---0-0--------------||-0-0-1-0---0-0-0-|-----0----|x3

e|-----------|------------|------------|------------|------------|--------|
B|-----------|------------|------------|------------|------------|--------|
G|-----------|------------|------------|------------|------------|--------|
D|-----------|------------|------------|------------|------------|--------|
A|-2-3-------|-(3)--------|-(3)--------|-(3)--------|-(3)--------|-(3)----|
E|-0-1-------|-(1)--------|-(1)--------|-(1)--------|-(1)--------|-(1)----|

Tablature Legend
----------------
 h   - hammer-on
 p   - pull-off
 b   - bend
 pb  - pre-bend
 r   - bend release (if no number after the r, then release immediately)
 /  - slide into or out of (from/to "nowhere")
 s   - legato slide
 S   - shift slide
  - natural harmonic
[n]  - artificial harmonic
n(n) - tapped harmonic
 ~   - vibrato
 tr  - trill
 T   - tap
 TP  - trem. picking
 PM  - palm muting
n/  - tremolo bar dip; n = amount to dip
 n  - tremolo bar down
 n/  - tremolo bar up
/n  - tremolo bar inverted dip
 =   - hold bend; also acts as connecting device for hammers/pulls
 <>  - volume swell (louder/softer)
 x   - on rhythm slash represents muted slash
 o   - on rhythm slash represents single note slash

Misc Legend
-----------
 |  - bar
||  - double bar
||o - repeat start
o|| - repeat end
*|  - double bar (ending)
 :  - bar (freetime)
 $  - Segno
 &  - Coda
Tempo markers -  = BPM(8/16=s8/s16),
where s8 = swing 8ths, s16 = swing 16th

            
            
Suggest correction
Creating personal tab
Creating personal tab
You can edit any tab online and save it as your Personal.

You can edit, replace or remove any tab part or add personal notes – all changes will be seen only by you.

Personal tabs can be accessed anytime from any device, even offline.
Learn more »
Give kudos to tab author, rate the tab!
1 2 3 4 5
comments
print report bad tab
guest
You may want to rate the tab now too:
select rating
Wanna post a correction for this tab? Suggest correction