Oops, an error
Loading. Please wait.

Serpent Moves Tab

version 1
version 1

Whole song

Interactive

2,357 views 6 this week
no commentswrite comment
1 2 3 4 5
x 3
add to favorites
launch autoscroll
font size
0
reset
how to read this tab
guitar tuner
×
Best way to learn
"Serpent Moves"
Autoscroll
slow
fast
+/-
esc
set tempo
stop
Tuning
D# G# C# F# A# D#
Tune to Eb (Eb,Ab,Db,Gb,Bb,Eb)
                          
D#|-------------------------|----------------0----1-|-------------------------|----------------0--------|
A#|--------------0----------|--------------0---0--1-|--------------0----------|--------------0-----0---0|
F#|------------3---3-----3--|------------3----------|------------3---3-----3--|------------3-----3---3--|
C#|-2-2-2-2--2-------2---3--|-2-2-2-2--2------------|-2-2-2-2--2-------2---3--|-2-2-2-2--2--------------|
G#|-2-2-2-2--------------1--|-2-2-2-2---------------|-2-2-2-2--------------1--|-2-2-2-2-----------------|
D#|-0-0-0-0-----------------|-0-0-0-0---------------|-0-0-0-0-----------------|-0-0-0-0-----------------|

D#|----------------------------------|-------------------------------|---------------------------------------|
A#|----------------------------------|-------------------------------|---------------------------------------|
F#|------------------------------8/--|-------------------------------|---------------------------------------|
C#|-6-6-7-6-6-6-7-6-6-6-7-6-7-6--9/--|-6-6-7-6-6-6-7-10-6-6-7-6-7-6--|----------6------9-------4-------------|
G#|-6-6-7-6-6-6-7-6-6-6-7-6-7-6------|-6-6-7-6-6-6-7-10-6-6-7-6-7-6--|---5-4------5-------5------5---4-5-----|
D#|-4-4-5-4-4-4-5-4-4-4-5-4-5-4------|-4-4-5-4-4-4-5-8--4-4-5-4-5-4--|-4------4-----4-------4------4---------|

D#|----------------------------------|-----------------------------------------------------------------------|
A#|----------------------------------|-----------------------------------------------------------------------|
F#|-----------------------------6----|-----------------------------------------------------------------------|
C#|---------6------9-----4------6----|------------6------9------4--------------------------------------------|
G#|---5-4-----5------5-----5----4----|---5--4-------5------5------5----4--5----------------------------------|
D#|-4-----4-----4------4-----4-------|-4-------4------4------4------4----------------------------------------|

D#|-------------------------------|--------------------------------------------------------------------------|
A#|-------------------------------|--------------------------------------------------------------------------|
F#|-------------------------------|--------------------------------------------------------------------------|
C#|-----------6------9------------|------------6------9------4-----------------------------------------------|
G#|---5--4------5-------5--4------|---5--4-------5------5------5----4--5-------------------------------------|
D#|-4-------4-----4---------------|-4-------4------4------4------4-------------------------------------------|

D#|----------------------------------|-----------------------------------------------------------------------|
A#|----------------------------------|-----------------------------------------------------------------------|
F#|-----------------------------6----|-----------------------------------------------------------------------|
C#|---------6------9-----4------6----|------------6------9------4--------------------------------------------|
G#|---5-4-----5------5-----5----4----|---5--4-------5------5------5----4--5----------------------------------|
D#|-4-----4-----4------4-----4-------|-4-------4------4------4------4----------------------------------------|

D#|----------------------------------|---------|--------|----------------------------------------------------|
A#|----------------------------------|---------|--------|----------------------------------------------------|
F#|----------------------------------|---------|--------|----------------------------------------------------|
C#|----------6------9------4---------|---4-----|-7-6-4--|-----4--3-----3-------------------------------------|
G#|---5-4------5------5------5-------|------3--|-7-6-4--|---4--------1---------------------------------------|
D#|-4-----4------4------4------4-----|-2-------|-5-4-2--|-2--------2-----------------------------------------|

************************************

| /  Slide up

************************************
Suggest correction
Give kudos to tab author, rate the tab!
1 2 3 4 5
comments
print report bad tab
guest
You may want to rate the tab now too:
select rating
Wanna post a correction for this tab? Suggest correction