Oops, an error
Loading. Please wait.

Eben Ezer tab

22 views 1 this week
no commentswrite comment
1 2 3 4 5
3 more votes to show rating
add to favorites
×
Save as Personal and add changes to this tab that will be seen only by you. Learn more ›
×
You can save this tab as Personal to edit and correct it or add notes. All changes will be seen only by you. Learn more »
launch autoscroll
font size
0
reset
how to read this tab
guitar tuner
edit
Autoscroll
slow
fast
+/-
esc
set tempo
stop
intro
1  --------3--------------3----------------------2------------2------
2  ---2-5---5-2-------2-5---5-2-------------2-5-----5-2----2-5----5-2
3  -5----------------5--------------------4-------------4------------
4  ------------------------------------------------------------------

1  -----------------------------------------------------------------------
2  -3333333-555555-3333333----0-2-3----------------------2222222--2-3-2-5
3  ----------------------------------5-5-2-2------------------------------
4  -------------------------------------------5-5--5-4-5------------------


                            ahi momentos que me falta valor......

1  -8-7-5-3-2-0--------------00000000-3333333----------------------------
2  ------------------3333333--------------------33333333-----------------
3  ----------------------------------------------------------------------
4  ----------------------------------------------------------------------

                 tanto de tu... mas cada dia...

1  ---3--7----3--7-----------2--5-----2--5-------2-0-0------0000000--------
2  -5--5----5--5-----------5--5-----5--5-----------------5-----------------
3  ------------------------------------------------------------------------
4  ------------------------------------------------------------------------

               eben ezeeeeerrrr..                  eben ezeeeeeeeeeeeeer

1  -333333333-2-3-5555555555--------33333-55555-33333-77777---------
2  -----------------------------------------------------------------
3  -----------------------------------------------------------------
4  -----------------------------------------------------------------

             hasta aqui me a ayudado jehova....

1  ------------------8-7-5-8-7-5-------------------3-2-1111---------------
2  -----------------------------------5555-----------------------5555-2222
3  -----------------------------------------------------------------------
4  -----------------------------------------------------------------------

        eben ezeeeer                     de victoria..

1  -----------8888888-------------------------------3-2-1111---------------
2  ---------------------------------------------------------------5555-2222
3  ------------------------------------------------------------------------
4  ------------------------------------------------------------------------

  desde aquel  dia            en que llegaste a mi     comenzo a cambiar...

1  --------------------------------------------------------------2222-3333
2  -----------------------3-------------3-5-3-6-5-3-2222---55555----------
3  ---------------2-5-2-----5-2-------------------------------------------
4  -------------------------------5---------------------------------------

en este dia...            cuato te amooo--

1  -----------3-7-3-5-----2-0-2-3333333333333333333333------------
2  ---------------------------------------------------------------
3  ---------------------------------------------------------------
4  ---------------------------------------------------------------

2 intro

1  ---1-5--3333333333333-7-5-3333333333----0000-2222-3333 7777-10-10-10-10
2  -----------------------------------------------------------------------
3  -5---------------------------------------------------------------------
4  -----------------------------------------------------------------------

fin
1  --------3---------------3----------------------2---------------2------
2  ---2-5---5-2-------2-5----5-2-------------2-5----5-2--------2-5----5-2
3  -5----------------5---------------------4----------------4------------
4  ----------------------------------------------------------------------

1  ------------------------------------------22222-33333-55555-7777777---
2  -3333333-555555-3333333-----------------------------------------------
3  ----------------------------------------------------------------------
4  ----------------------------------------------------------------------

dios bendiga a todos los banjistas de chile
y perdonen lo poco pero la saque mirando bueno
chauuu y ojala les guste

jefe de coro: Luis Urtubia arredondo
mision Sendas Antiguas de Cerro Navia
Suggest correction
Creating personal tab
Creating personal tab
You can edit any tab online and save it as your Personal.

You can edit, replace or remove any tab part or add personal notes – all changes will be seen only by you.

Personal tabs can be accessed anytime from any device, even offline.
Learn more »
Give kudos to tab author, rate the tab!
1 2 3 4 5
comments
print report bad tab
guest
Wanna post a correction for this tab? Suggest correction