Oops, an error
Loading. Please wait.

Glorioso Encuentro tab

59 views 1 this week
no commentswrite comment
1 2 3 4 5
3 more votes to show rating
add to favorites
×
Save as Personal and add changes to this tab that will be seen only by you. Learn more ›
×
You can save this tab as Personal to edit and correct it or add notes. All changes will be seen only by you. Learn more »
launch autoscroll
font size
0
reset
how to read this tab
guitar tuner
edit
Autoscroll
slow
fast
+/-
esc
set tempo
stop
GLORIOSO ENCUENTRO  (DO + )
2º VOZ MANDOLINA

INTRODUCCION


4.------------------------------------------------------------------
3.------------------------------------------------------------------
2.--------------------------------------------555-------------------
1.-33333333-0-1-3-5-7-8888888-777777-3-1-0000-----0-----------------

4.-------------------------------------------------------------------
3.-------------------------------------------------------------------
2.-3-5----------------------------------------5----------------------
1.----0-1-3-5555555-3333333-0-11111-8888888-7--0-1-3-1-555555-3333333

4.-------------------------------------------------------------------
3.-------------------------------------------------------------------
2.------------------------------33-5-3------33-5-3-----33-5-3333333333
1.-0-1111-888888-77777777--33-0--------33-0--------33-0---------------


Se que un lugar....

4.---------------------------------------
3.2-3-5---------------------------------5
2.------0-2-3---------3-------3-5-3-2-0--
1.------------1-3-1-0---3-1-0------------

donde por siempre ...
4.-----------------------------------------
3.-2-3-5-----------------------------5-4-5-
2.-------0-2-3---------5-----5-3-2-0-------
1.-------------3-5-3-0---1-0---------------

donde la muerte y el rencor....
4.----------------------------------------
3.-2-3-5---------------------------------5
2.-------0-2-0---------5-------3-5-3-2-0--
1.-------------1-3-1-0---3-1-0------------

por que mi....
4.----------------------------------------------
3.-------------------------------2-3-5----------
2.-------------------------------------0-2-3-5--
1.1111111-123333333333-0000000---------------0--

CORO
Ya no me impor....
4.--------------------------------------------------------
3.-2-3-5-3---5--------------------------------------------
2.---------0---3-2-5-3---5-----------------5--------------
1.---------------------0---1-0-3-1-5-3-1-0---0-1-3-5555555

SI A MI LA.....
4.-------------------------------------------------------------
3.-3-2-5-3---5-------------------------------------------------
2.---------0---3-2-5-3---5-----------------------------5-3-2-0-
1.---------------------0---1-0-3-1-5-3-7-5-8-7-5-3-1-0---------

4.--------------------------------------------------
3.-2-3-5--------------------------------------------
2.------0-2-3-5-------------------------------------
1.--------------0------------------------------------


quiero llegar a....
4.--------------------------------------------------------
3.-2-3-5-3---5--------------------------------------------
2.---------0---3-2-5-3---5-----------------5--------------
1.---------------------0---1-0-3-1-5-3-1-0---0-1-3-5555555

en lo poco haz sido fiel
4.-------------------------
3.-------------------------
2.-------3-------3---------
1.-3-1-0---3-1-0-----------

sobre mucho te pondré
4.--------------------------
3.-2-3-5--------------------
2.------0-2-3-5-------------
1.--------------0-1-3-5-6-7-

entra siervo fiel
4.---------------------------------
3.------------------2-3-5----------
2.-------3-------3--------0-2-3-5--
1.-3-1-0---3-1-0------------------0

(SE REPITE EL CORO)

NUEVAMENTE LA INTRODUCCION Y ESTROFA ES LO MISMO

PARA FINALIZAR EN LA FRASE "ENTRA SIERVO FIEL"
HAY QUE TOCAR DE LA SIGUIENTE MANERA

entra siervo fieeeel, siervo fiel, siervo fieeeeeeeeeel
4.-----------------------------------------------------------
3.-----------------------------------------------------------
2.-----------------------------------------------------------
1.-000000-11111-333333-0000000-11111-3333-333333333333333----


CHAU DTB....

            
            
Suggest correction
Creating personal tab
Creating personal tab
You can edit any tab online and save it as your Personal.

You can edit, replace or remove any tab part or add personal notes – all changes will be seen only by you.

Personal tabs can be accessed anytime from any device, even offline.
Learn more »
Give kudos to tab author, rate the tab!
1 2 3 4 5
comments
print report bad tab
guest
Wanna post a correction for this tab? Suggest correction