Oops, an error
Loading. Please wait.

Albatross Bass Tab

version 1
version 1

Whole song

Interactive

7,908 views 21 this week
2 commentsread comments
1 2 3 4 5
accurate
x 4
add to favorites
launch autoscroll
font size
0
reset
guitar tuner
Tab Pro tools
  • play this tab
  • loop segment
  • change instrument
  • show fretboard
  • metronome
Autoscroll
slow
fast
+/-
esc
set tempo
stop
Contributor
Difficulty
Tuning
intermediate
D A D G B E
Corrosion Of Conformity
 Verse
 g--------------------------------|
 d--------------------------------|
 a--1h333-111h33-1h333------------|
 d---------------------1-331------|

 g--------------------------------|
 d--------------------------------|
 a--1h333--111h33-1-2-------------|
 d--------------------1-----------|

 Chorus
 g--------88------------------------|
 d--10-8----10-8--10-8-----------1--|
 a------10------10----10------1-3-3-|
 d------------------------3-1-------|

 Tabbed by pantera_rules1
comments
print report bad tab
2 comments total.
0 reply
Declanmcdevitt wrote on June 6 2010, 01:43 pm

Awesome tab!...but I thought there'd be more than that. Meh, Four stars!

0 reply
Shuvlhed wrote on March 25 2014, 01:01 pm

appreciate the tab. Theres not much COC on the site. I was wanting to learn Land of Free Disease. If any one has tab or can transcribe, please do. This tab is close enough if not correct. Im a beginner bass player so im not one to say its right or wrong. Sounds right.

I want to post or [tab]
guest
You may want to rate the tab now too:
select rating
Please do not post tabs as comments. Select "correction" instead!