Oops, an error
Loading. Please wait.

Albatross Bass Tab

version 2
version 2

Whole song

Interactive

4,126 views 27 this week
no commentswrite comment
1 2 3 4 5
1 last vote to show rating
add to favorites
launch autoscroll
font size
0
reset
guitar tuner
Autoscroll
slow
fast
+/-
esc
set tempo
stop
Help us to improve Ultimate-Guitar.com Take our survey!
×
Author
Difficulty
Tuning
intermediate
D G C F A D
Corrosion Of Conformity - 'Albatross'
From the Album 'Deliverance'
Tuning - Down 1 step (DGCF)
Tabbed by jjhand

This song has some heavy low fuzz guitar and bass but I think this tab 
will be better than others on the site for the bass part. Great guitars 
in this one! Please rate/comment


Intro
F|----------------------------------| 
C|----------------------3-5-6-3-----|
G|-5-3-----3-5------3-5-------------|
D|-----1-------3----------------3\1-|



 Verse
 F|--------------------------------|--------------------------------|
 C|--------------------------------|--------------------------------|
 G|-3h5--5--5~-0--3--5-5-5-5---0-0-|-3h5-5-5-5-5------------1---3---|
 D|--------------------------------|-------------0-1-----3----3---3-|

 F|--------------------------------|--------------------------------|
 C|--------------------------------|--------------------------------|
 G|-3h5--5--5~-0--3--5-5-5-5---3-0-|-------------2-------2---3---3--|
 D|--------------------------------|-1----1-1----------3---3---3---3|


Play Verse 4x with slight changes




Chorus
 F|-------------------------------|--------------------------|
 C|-------------------------------|--------------------3-----|
 G|-5\3--------5-----3---/5---3---|----------------3-5---5---|
 D|-----0-1--1---------5--------5-|-3----3----1--------------|

                    "Well you can call me crazy"

 F|-------------------------------|--------------------------|
 C|-------------------------------|--------------------3-----|
 G|-5\3--------5-----3---/5---3---|----------------3-5---5-3-|
 D|-----0-1--1---------5--------5-|-3----3----1--------------|
                        "you can call me rogue"

 F|-------------------------------|--------------------------|
 C|-------------------------------|--------------------3-----|
 G|-5\3--------5-----3---/5---3---|----------------3-5---5---|
 D|-----0-1--1---------5--------5-|-3----3----1--------------|
                        "Cause I was born a liar, Albatross"

 F|-------------------------------|--------------------------|
 C|-------------------------------|--------------------------|
 G|-5\3--------5-----3---/5---3---|--------------------------|
 D|-----0-1--1---------5--------5-|-3----3----1--------------|
           "Fly on, Fly on Albatross"



Play Verse Again

Play Chorus Again



Chorus 2 Ending
|------------------------|------------------------|----------------|
|------------------------|------------------------|----------------|
|------------------------|------------------5-3-0-|---------5------|
|-3---3---1--------------|-3---3---1--------------|-1---1----------|




Solo Rhythm Part - note that slide is not performed each time

|------------------------|---------------------------|
|------------------------|---------------------------|
|------------------------|---------------------------|
|-10-8-10---10-8-10\-----|-10-8-10---10-8-3----4-----|





Play Chorus


Play Verse to Outro Solo
Suggest correction
Give kudos to tab author, rate the tab!
1 2 3 4 5
comments
print report bad tab
guest
You may want to rate the tab now too:
select rating
Wanna post a correction for this tab? Suggest correction