Oops, an error
Loading. Please wait.

Albatross Tab

version 3
version 3

Interactive

7,455 views 3 this week
2 commentsread comments
1 2 3 4 5
x 3
add to favorites
launch autoscroll
font size
0
reset
how to read this tab
guitar tuner
Autoscroll
slow
fast
+/-
esc
set tempo
stop
Help us to improve Ultimate-Guitar.com Take our survey!
×
Author
Band - Corrosion Of Conformity
Song - Albatross

				(Guitar 1) 
|-----------------------------|--------------------------------------------|
|-----------------------------|--------------------------------------------|
|o----------------------------|--------------------------------------------|
|o-5-5/7--7--7--x-5--5-5/7--7-|-5-5/7--7-(7)-7/5--10-(10)--12-12-10-(10)---|
|--3-3/5--5--5--x-3--3-3/5--5-|-3-3/5--5-(5)-5/3--8--(8)---10-10-8--(8)----|
|-----------------------------|--------------------------------------------|
| 
|
|				(Guitar 2)
|-----------------------------|--------------------------------------------|
|-----------------------------|--------------------------------------------|
|-----------------------------|--------------------------------------------|
|-----------------------------|----------------0-0--5-5br-3--3-------------|
|-----------------------------|--------------------------------------------|
|-----------------------------|--------------------------------------------|


Verse:
				(Guitar 1)
|-----------------------------|--------------------------------------------|
|-----------------------------|--------------------------------------------|
|o---5/7--7--7----5--5-5/7--7-|---5/7--7-(7)-7/5---------------------------|
|o-5-5/7--7--7--x-5--5-5/7--7-|-5-5/7--7-(7)-7/5--10-(10)--12-12-10-(10)---|
|--3-3/5--5--5--x-3--3-3/5--5-|-3-3/5--5-(5)-5/3---8--(8)---10-10-8--(8)---|
|-----------------------------|--------------------------------------------|
| 
|				(Guitar 2)
|----------------------------------|-------------------|-------------------|
|----------------------------------|-------------------|-------------------|
|o---------------------------------|-------------------|-------------------|
|o----10/12-12-12-x-10-10-10/12-12-|-10-10/12-12-12\10-|-------------------|
|--10-10/12-12-12-x-10-10-10/12-12-|-10-10/12-12-12\10-|-3--3--5--5--3-(3)-|
|--8---8/10-10-10---8--8---8/10-10-|-8---8/10-10-10\8--|-1--1--3--3--1-(1)-|

|---------------------------|----------------------------------------------|
|---------------------------|----------------------------------------------|
|--5/7--7--7----5-5-5/7--7--|-5-------------------------------------------o|
|--5/7--7--7--x-5-5-5/7--7--|-5-/10-10--10\--5--5-5-7-7\5-5-5-------------o|
|--3/5--5--5--x-3-3-3/5--5--|-3-/8--8---8\---3--3-3-5-5\3-3-3--------------|
|---------------------------|----------------------------------------------|
|
|------------------------------|-------------------|-----------------------|
|------------------------------|-------------------|-----------------------|
|------------------------------|-------------------|----------------------o|
|-10/12-12-12-x-10-10-10/12-12-|-10-/10-10-10\-----|----------------------o|
|-10/12-12-12-x-10-10-10/12-12-|-10-/8--8---8\-----|-3--3--5--5--3--3------|
|--8/10-10-10---8--8---8/10-10-|-8-----------------|-1--1--3--3--1--1------|

First solo:
			 (Guitar 1)
|-----------|---------|---------|---------|------------|
|-----------|---------|---------|---------|------------|
|o----------|---------|---------|---------|-----------o|
|o-7\5---7--|-7\5---7-|-x-x-x-x-|-7\5---7-|-7\5-------o|
|--5\3---5--|-5\3---5-|-x-x-x-x-|-5\3---5-|-5\3---5-6--|
|-----------|---------|---------|---------|-------3-4--|

Second solo played alongside verse riff
Suggest correction
Give kudos to tab author, rate the tab!
1 2 3 4 5
comments
print report bad tab
2 comments total.
0 reply
irishman 107 Jul 27, 2007 10:22 AM

solos not tabbed

+1 reply
Fintrollx 254 Feb 10, 2009 10:58 AM

what tuning?

guest
You may want to rate the tab now too:
select rating
Wanna post a correction for this tab? Suggest correction