Oops, an error
Loading. Please wait.

Albatross Tab

version 5
version 5

Interactive

11,150 views 57 this week
no commentswrite comment
1 2 3 4 5
accurate
x 4
add to favorites
launch autoscroll
font size
0
reset
how to read this tab
guitar tuner
Tab Pro tools
  • play this tab
  • loop segment
  • change instrument
  • show fretboard
  • metronome
×
Best way to learn
"Albatross"
Autoscroll
slow
fast
+/-
esc
set tempo
stop
Contributor
Difficulty
Tuning
intermediate
C F A# D# G C
Corrosion of Conformity
"Albatross"
Tuning: D G C F A D

This is my first tab so let me know what u think. I'm pretty sure on this one and from 
I've seen from most tabs on the chorus I know this is more accurate. Very fun song to play.

 br bend-release
 /  slide up
 \  slide down
 h  hammer-on
 p  pull-off
 ~  vibrato
 x  Mute note


Intro/Verse
d|--------------------------------------------------|
A|--------------------------------------------------|
F|----5/7-77---5---5/77~---5/7-77-10~---12br12br-10-|
C|--x-5/7-77-x-5-x-5/77~-x-5/7-77-10~-x-12br12br-10-|
G|--x-3/5-55-x-3-x-3/55~-x-3/5-55-8~--x-10br10br-8--|
D|--------------------------------------------------|


d|--------------------------------------------------|
A|--------------------------------------------------|
F|----5/7-77---5---5/77--10~-1010--5~-555/7---------|
C|----5/7-77-x-5-x-5/77--10~-1010--5~-555/7---------|
G|----3/5-55-x-3-x-3/55--8~~-8-8---3~-333/5---------|
D|--------------------------------------------------|

d|--------------------------------------------------|
A|--------------------------------------------------|
F|----5/7-77---5---5/77~---5/7-77-10~---12br12br-10-|
C|--x-5/7-77-x-5-x-5/77~-x-5/7-77-10~-x-12br12br-10-|
G|--x-3/5-55-x-3-x-3/55~-x-3/5-55-8~--x-10br10br-8--|
D|--------------------------------------------------|


d|--------------------------------------------------|
A|--------------------------------------------------|
F|----5/7-77---5---5/77--10~-1010--5~-555/77--------|
C|----5/7-77-x-5-x-5/77--10~-1010--5~-555/77--------|
G|----3/5-55-x-3-x-3/55--8~~-8-8---3~-333/55--------|
D|--------------------------------------------------|

Chorus


d|------------------------------------------------|
A|------------------------------------------------|
F|------------------------------------------------|
C|------------3-3---------------------------------|
G|------5p3-------5~--5p3/5-5\3-------------------|
D|----------5-------------------3br3br-1~~--------|


d|------------------------------------------------|
A|------------------------------------------------|
F|------------------------------------------------|
C|------3----------3-3----------------------------|
G|--3h5---5-3-5p3-------5~--5p3/5-5\3-------------|
D|----------------5-------------------3br3br-1~~--|


d|------------------------------------------------|
A|------------------------------------------------|
F|------------------------------------------------|
C|-----3----------3-3-----------------------------|
G|-3h5---5p35p3-----------5p3/5-5\3---------------|
D|--------------5-----5~------------3br3br-1~~----|


d|------------------------------------------------|
A|------------------------------------------------|
F|------------------------------------------------|
C|------3-----------3-3---------------------------|
G|--3h5---5-3-5p3-------5~--5p3/5-5\3-------------|
D|----------------5-------------------3br3br-1~~--|


Fill


d|----------------------------|
A|----------------------------|
F|----------------------------|
C|----------------------------|
G|------------------------5~~-|
D|--3br3br-1~~---3-1~-3~3~----|

This is played over solo

d|--------------------------------------|
A|--------------------------------------|
F|--7-5-7--7-5-7-xxxx-7-5-7--7/5--------|
C|--7-5-7--7-5-7-xxxx-7-5-7--7/5-5--3---|
G|--5-3-5--5-3-5-xxxx-5-3-5--5/3-5--3---|
D|-------------------------------3--1---|


d|--------------------------------------|
A|--------------------------------------|
F|--7-5-7--7-5-7------7-5-7--7/5--------|
C|--7-5-7--7-5-7------7-5-7--7/5-5--3---|
G|--5-3-5--5-3-5------5-3-5--5/3-5--3---|
D|-------------------------------3--1---|


d|--------------------------------------|
A|--------------------------------------|
F|--7-5-7--7-5-7-xxxx-7-5-7--7/5--------|
C|--7-5-7--7-5-7-xxxx-7-5-7--7/5-5--3---|
G|--5-3-5--5-3-5-xxxx-5-3-5--5/3-5--3---|
D|-------------------------------3--1---|


d|--------------------------------------|
A|--------------------------------------|
F|--7-5-7--7-5-7------7-5-7--7/5--------|
C|--7-5-7--7-5-7------7-5-7--7/5-5--3---|
G|--5-3-5--5-3-5------5-3-5--5/3-5--3---|
D|-------------------------------3--1---|
...then back to chorus
===============================================================================
comments
print report bad tab
I want to post or [tab]
guest
You may want to rate the tab now too:
select rating
Please do not post tabs as comments. Select "correction" instead!