Oops, an error
Loading. Please wait.

Break The Circle Bass Tab

211 views 1 this week
no commentswrite comment
1 2 3 4 5
please rate
add to favorites
launch autoscroll
font size
0
reset
guitar tuner
Autoscroll
slow
fast
+/-
esc
set tempo
stop
Help us to improve Ultimate-Guitar.com Take our survey!
×
Author
Difficulty
Tuning
novice
D G C F A D
Break the Circle - Corrosion of Conformity
* - Hold Note
x - Mute Note
#h# - Hammer On
#p# - Pull Off
#b - Bend Note
r - Release Bend
/ - Slide up Fretboard, \ - Slide down Fretboard
.             >
# - Staccato, # - Accent Note
|-----|
|o---o|- Repeat Measure. If there is a number to the side, play measure that many 
|o---o|  times. If not, play twice.
|-----|

============================================================================================

Intro:
F |-------------------------------------------------------------------------|
C |-{Drums}-----------------------------------------------------------------|
G |-------------------------------------------------------------------------|
D |----------0*----3b4*---(3)r---3-2-1---0---3-2-1-----0-3-2-1---0---3-2-1--|

Verse:
F |--------------------------------------------|----------------------------|
C |--------------------------------------------|----------------------------|
G |--------------------------------------------|----------------------------|
D |-3-2-0---0---3-2-1-------3-2-1---0---3-2-0--|---3-2-1*----3--2--1--0-3-2-|

  |--------------------------------------|    |--------------------------|
  |o------------------------------------o|    |--------------------------|
  |o----.-.-.-.-.-.-.-----.-.-.-.-.-.-.-o| x4 |--------------------------|
  |-3-2-1-1-1-1-1-1-1-2-1-0-0-0-0-0-0-0--|    |-3-2-1*----3--2--1--0-3-2-|

Chorus:
F |------------------------(In sync with guitar)------------|
C |---------------------------------------------------------|
G |-5*--------5-3*------33/7-7--7--77-77-7--5h7--7--77-77-7-|
D |--------00-----------------------------------------------|

  |---------------------------------------------------------|
  |---------------------------------------------------------|
  |-xx5*-----3*---xx4xx6-6/7-7--7--77-77-7--5h7--7--77-77-7-|
  |---------------------------------------------------------|

Verse:
F |--------------------------------------|    |--------------------------|
C |o------------------------------------o|    |--------------------------|
G |o----.-.-.-.-.-.-.-----.-.-.-.-.-.-.-o| x4 |--------------------------|
D |-3-2-1-1-1-1-1-1-1-2-1-0-0-0-0-0-0-0--|    |-3-2-1*----3--2--1--0-3-2-|

Chorus:
F |---------------------------------------------------------|
C |---------------------------------------------------------|
G |-5*--------5-3*------33/7-7--7--77-77-7--5h7--7--77-77-7-|
D |--------00-----------------------------------------------|

  |---------------------------------------------------------|
  |---------------------------------------------------------|
  |-xx5*-----3*---xx4xx6-6/7-7--7--77-77-7--5h7--7--77-77-7-|
  |---------------------------------------------------------|

Interlude:
F |-----|-----|---------------------------|----------------|----------------|
C |-----|-----|o-------------------------o|----------------|----------------|
G |--R--|--R--|o-7----7----6----5--------o|----------------|-------3--------|
D |-----|-----|----7----6----5----4-3b-p0-|-5--5--5--0-5\\-|-1*-------1-1//-|

  |--------------|---------------|----------------|--------------|(With guitar)|
  |--------------|---------------|----------------|--------------|-------------|
  |---------7\\\-|---------------|----------7-----|--------------|-------2*----|
  |-5*----5------|-1*-----xx1-3/-|-5--5-0-5---5\\-|-1--1--1--3///|-5*----------|

  |-------------|-------------|-------------|-----------------|-----------------|
  |-------------|-2*----------|-------2*----|-----------------|-----------------|
  |-3*----5*----|-------3*----|-5*----------|-----------------|-----------------|
  |-------------|-------------|-------------|-5-5-5-5-5-5-5-5\|\1-1-1-1-1-1-1-1-|

  |---------------------------|    |-------------------------|
  |o-------------------------o|    |-------------------------|
  |o-7----7----6----5--------o| x2 |-7----7----6----5--------|
  |----7----6----5----4-3b-p0-|    |---7----6----5----4-3b*--|

Verse:
F |--------------------------------------|    |--------------------------|
C |o------------------------------------o|    |--------------------------|
G |o----.-.-.-.-.-.-.-----.-.-.-.-.-.-.-o| x4 |--------------------------|
D |-3-2-1-1-1-1-1-1-1-2-1-0-0-0-0-0-0-0--|    |-3-2-1*----3--2--1--0-3-2-|

  |--------------------------------------|    |--------------------------|
  |o------------------------------------o|    |--------------------------|
  |o----.-.-.-.-.-.-.-----.-.-.-.-.-.-.-o| x4 |--------------------------|
  |-3-2-1-1-1-1-1-1-1-2-1-0-0-0-0-0-0-0--|    |-3-2-1*----3--2--1--0-3-2-|

Chorus:
F |---------------------------------------------------------|
C |---------------------------------------------------------|
G |-5*--------5-3*------33/7-7--7--77-77-7--5h7--7--77-77-7-|
D |--------00-----------------------------------------------|

  |---------------------------------------------------------|
  |---------------------------------------------------------|
  |-xx5*-----3*---xx4xx6-6/7-7--7--77-77-7--5h7--7--77-77-7-|
  |---------------------------------------------------------|

  |---------------------------|
  |---------------------------|
  |-xx5-5-55-5--3*---xx4xx6-7-|
  |-------------------------0-|

Outro:
F |-----|-----------------|-----------------|-----------------|----------|
C |-----|-----------------|->---------------|-----------------|->--------|
G |--R--|->---------------|-7---777777777777|-----------------|-7--------|
D |-----|-0---000000000000|-----------------|00000000000000000|-0--------|
Suggest correction new What's this?
You can suggest a correction to this tab. Community and Mods will review your correction and vote to approve or reject it.
comments
We did not receive enough feedback on this tab! Please rate:
print report bad tab
1 2 3 4 5
guest
You may want to rate the tab now too:
select rating
Please do not post tabs as comments. Select "correction" instead!