Oops, an error
Loading. Please wait.

Break The Circle Tab

948 views 3 this week
no commentswrite comment
1 2 3 4 5
please rate
add to favorites
launch autoscroll
font size
0
reset
how to read this tab
guitar tuner
Tab Pro tools
  • play this tab
  • loop segment
  • change instrument
  • show fretboard
  • metronome
×
Best way to learn
"Break The Circle"
Autoscroll
slow
fast
+/-
esc
set tempo
stop
Contributor
Band- Corrosion Of Conformity
Song- Break The Circle

TUNING: Tune 1 whole step down (D)

INTRO:
d |--------------------------------------------------|
A |--------------------------------------------------|
F |--------------------------------------------------|
C |-2-------5----------------------------------------|
G |-2-------5----------------------------------------|
D |-0-------3----------------------------------------|

d |--------------------------------------------------|  
A |--------------------------------------------------|  
F |--------------------------------------------------|
C |--------------------------------------------------|  
G |--5--5-5-5--2-2-2---------------------------------|  
D |--3--3-3-3--0-0-0---------------------------------|
    [PALM MUTED----]

d |--------------------------------------------------|  
A |--------------------------------------------------|  
F |--------------------------------------------------|
C |------------9-------------------------------------|  
G |--5-5-5-----9---2-2-2-----------------------------|  
D |--3-3-3-----7---0-0-0-----------------------------| x3
    [PALM MUTED--------]

d |--------------------------------------------------|
A |--------------------------------------------------|
F |--------------------------------------------------|
C |-----5---------5--4--2--4--5--4-------------------|
G |-5-5-5---------5--4--2--4--5--4-------------------|
D |-3-3-3----3-3--3--2--0--2--3--2-------------------|
    [PALM MUTED]

d |--------------------------------------------------|  
A |--------------------------------------------------|  
F |--------------------------------------------------|
C |--------------------------------------------------|  
G |--5-5-5----2-2-2----------------------------------|  
D |--3-3-3----0-0-0----------------------------------|  x2
    [PALM MUTED---]

d |--------------------------------------------------|
A |--------------------------------------------------|
F |--------------------------------------------------|
C |--------------------------------------------------|
G |-5-5-5--5--5--5--5--5--5--2-2-2--2--2--2--2--2--2-|
D |-3-3-3--3--3--3--3--3--3--0-0-0--0--0--0--0--0--0-|
    [PALM MUTED------------------------------------]

d |--------------------------------------------------|
A |--------------------------------------------------|
F |--------------------------------------------------|
C |--------------------------------------------------|
G |-5-5-5--5--5--5--5--5--5--2-2-2--2--2--2--2--2--2-|
D |-3-3-3--3--3--3--3--3--3--0-0-0--0--0--0--0--0--0-|
    [PALM MUTED------------------------------------]

d |--------------------------------------------------|
A |--------------------------------------------------|
F |--------------------------------------------------|
C |-----5---------5--4--2--4--5--4-------------------|
G |-5-5-5---------5--4--2--4--5--4-------------------|
D |-3-3-3----3-3--3--2--0--2--3--2-------------------|
    [PALM MUTED]

d |--------------------------------------------------|
A |--------------------------------------------------|
F |-7---7-7----------------2b-0-----------2b-0-------|
C |-7---7-7-7----7-7---0h2------2-2--0h2--------2-2--|
G |-5---5-5-7----7-7---------------------------------|
D |---------5----5-5---------------------------------|
    [PALM MUTED----]

d |----------------------------------------------------------------|
A |----------------------------------------------------------------|
F |-7---7-7------------------------------2b-0-----------2b-0-------|
C |-7---7-7-7-7--7-7-----------------0h2------2-2--0h2--------2-2--|
G |-5---5-5-7-5--5-5-7------7-----7--------------------------------|
D |---------5--------5--0-0-5-0-0-5--------------------------------|
    [PALM MUTED-------------------]

d |--------------------------------------------------|  
A |--------------------------------------------------|  
F |--------------------------------------------------|
C |--------------------------------------------------|  
G |--5-5-5----2-2-2----------------------------------|  
D |--3-3-3----0-0-0----------------------------------| x2
    [PALM MUTED---]

d |--------------------------------------------------|
A |--------------------------------------------------|
F |--------------------------------------------------|
C |--------------------------------------------------|
G |-5-5-5--5--5--5--5--5--5--2-2-2--2--2--2--2--2--2-|
D |-3-3-3--3--3--3--3--3--3--0-0-0--0--0--0--0--0--0-| x2
    [PALM MUTED------------------------------------]

d |--------------------------------------------------|
A |--------------------------------------------------|
F |--------------------------------------------------|
C |-----5---------5--4--2--4--5--4-------------------|
G |-5-5-5---------5--4--2--4--5--4-------------------|
D |-3-3-3----3-3--3--2--0--2--3--2-------------------| 
    [PALM MUTED]

d |--------------------------------------------------|
A |--------------------------------------------------|
F |-7---7-7----------------2b-0-----------2b-0-------|
C |-7---7-7-7----7-7---0h2------2-2--0h2--------2-2--|
G |-5---5-5-7----7-7---------------------------------|
D |---------5----5-5---------------------------------|
    [PALM MUTED----]

d |----------------------------------------------------------------|
A |----------------------------------------------------------------|
F |-7---7-7------------------------------2b-0-----------2b-0-------|
C |-7---7-7-7-7--7-7-----------------0h2------2-2--0h2--------2-2--|
G |-5---5-5-7-5--5-5-7------7-----7--------------------------------|
D |---------5--------5--0-0-5-0-0-5--------------------------------|

d |--------------------------------------------------|
A |--------------------------------------------------|
F |--------------------------------------------------|
C |-2---2---2---2------------------------------------|
G |---2---1---0---0----------------------------------|
D |-----------------3-0------------------------------| x4

SOLO:

d |--------------------------------------------------|
A |--------------------------------------------------|
F |--------------------------------------------------|
C |-2---2---2---2------------------------------------|
G |---2---1---0---0----------------------------------|
D |-----------------3-0------------------------------| x3

d |--------------------------------------------------|  
A |--------------------------------------------------|  
F |--------------------------------------------------|
C |--------------------------------------------------|  
G |--5-5-5----2-2-2----------------------------------|  
D |--3-3-3----0-0-0----------------------------------|  x2
    [PALM MUTED---]

d |--------------------------------------------------|
A |--------------------------------------------------|
F |--------------------------------------------------|
C |--------------------------------------------------|
G |-5-5-5--5--5--5--5--5--5--2-2-2--2--2--2--2--2--2-|
D |-3-3-3--3--3--3--3--3--3--0-0-0--0--0--0--0--0--0-| x2
    [PALM MUTED------------------------------------]

d |--------------------------------------------------|
A |--------------------------------------------------|
F |--------------------------------------------------|
C |-----5---------5--4--2--4--5--4-------------------|
G |-5-5-5---------5--4--2--4--5--4-------------------|
D |-3-3-3----3-3--3--2--0--2--3--2-------------------|
    [PALM MUTED]

d |--------------------------------------------------|
A |--------------------------------------------------|
F |--------------------------------------------------|
C |--------------------------------------------------|
G |-5-5-5--5--5--5--5--5--5--2-2-2--2--2--2--2--2--2-|
D |-3-3-3--3--3--3--3--3--3--0-0-0--0--0--0--0--0--0-| x2
    [PALM MUTED------------------------------------]

d |---------------------------------------------------|
A |---------------------------------------------------|
F |---------------------------------------------------|
C |-----------5-----5-----5-------------2-----2-----2-|
G |-5-5-5-----5-----5-----5---2-2-2-----2-----2-----2-|
D |-3-3-3--3-----3-----3------0-0-0--0-----0-----0----| x2
    [PALM MUTED----------------------------------]

d |--------------------------------------------------|
A |--------------------------------------------------|
F |--------------------------------------------------|
C |-----5---------5--4--2--4--5--4-------------------|
G |-5-5-5---------5--4--2--4--5--4-------------------|
D |-3-3-3----3-3--3--2--0--2--3--2-------------------|
    [PALM MUTED]

d |--------------------------------------------------|
A |--------------------------------------------------|
F |-7---7-7----------------2b-0-----------2b-0-------|
C |-7---7-7-7----7-7---0h2------2-2--0h2--------2-2--|
G |-5---5-5-7----7-7---------------------------------|
D |---------5----5-5---------------------------------|
    [PALM MUTED----]

d |----------------------------------------------------------------|
A |----------------------------------------------------------------|
F |-7---7-7------------------------------2b-0-----------2b-0-------|
C |-7---7-7-7-7--7-7-----------------0h2------2-2--0h2--------2-2--|
G |-5---5-5-7-5--5-5-7------7-----7--------------------------------|
D |---------5--------5--0-0-5-0-0-5--------------------------------|
    [PALM MUTED-------------------]

d |--------------------------------------------------|
A |--------------------------------------------------|
F |-7---7-7----------------2b-0-----------2b-0-------|
C |-7---7-7-7----7-7---0h2------2-2--0h2--------2-2--|
G |-5---5-5-7----7-7---------------------------------|
D |---------5----5-5---------------------------------|
    [PALM MUTED----]

d |--------------------------------------------------|
A |--------------------------------------------------|
F |--------------------------------------------------|
C |-2---2---2---2------------------------------------|
G |---2---1---0---0----------------------------------|
D |-----------------3-0------------------------------| x4
comments
We did not receive enough feedback on this tab! Please rate:
print report bad tab
1 2 3 4 5
I want to post or [tab]
guest
You may want to rate the tab now too:
select rating
Please do not post tabs as comments. Select "correction" instead!