Oops, an error
Loading. Please wait.

Buried Tab

754 views 3 this week
no commentswrite comment
1 2 3 4 5
accurate
x 1
add to favorites
launch autoscroll
font size
0
reset
how to read this tab
guitar tuner
Tab Pro tools
  • play this tab
  • loop segment
  • change instrument
  • show fretboard
  • metronome
Autoscroll
slow
fast
+/-
esc
set tempo
stop
Contributor
Band- Corrosion Of Conformity
Song- Buried

TUNING: Tune 1 ½ whole steps down (C# Tuning)
                                 
INTRO:
C# |---------------------------------------------------------|
G# |---------------------------------------------------------|
E  |---------------------------------------------------------|
B  |---------------------------------------------------------|
F# |-----7--5---------5--------------2-----------------------|
C# |--------------7----------7---3---0-----------------------|

C# |---------------------------------------------------------|
G# |---------------------------------------------------------|
E  |---------------------------------------------------------|
B  |---9----8-----9\\---------------------5--------7b-5--7—5-|
F# |---9----8-----9\\------------5-h-7---------7-------------|
C# |---7----6-----7\\-----0--0-------------------------------|
                               [PALM MUTED]

C# |---------------------------------------------------------|
G# |---------------------------------------------------------|
E  |---------------------------------------------------------|
B  |---9----8-----9\\----------------------------------------|
F# |---9----8-----9\\------2---2-----2—2---------------------|         
C# |---7----6-----7\\------0---0-----0—0---------------------|
			   [PALM MUTED--] Repeat 
                                                
VERSE:
C# |---------------------------------------------------------|
G# |---------------------------------------------------------|
E  |---------------------------------------------------------|
B  |---9----8-----9\\----------------------------------------|
F# |---9----8-----9\\-----2----2-----------------------------|
C# |---7----6-----7\\-----0----0-----------------------------|
                         [PALM MUTED]

C# |---------------------------------------------------------|
G# |---------------------------------------------------------|
E  |---------------------------------------------------------|
B  |---9----8-----9\\----------------------------------------|
F# |---9----8-----9\\-----2--2--2--2--2--2--2--2-------------|        
C# |---7----6-----7\\-----0--0--0--0--0--0--0--0-----3~~~~~~-|
                                      Repeat                             

C# |---------------------------------------------------------|
G# |-----------------------------------------------3---5-----|
E  |----------4---------3----------4-------------------------|    
B  |----2---------2----------2-----------2-------------------|      
F# |---------------------------------------------------------|
C# |---------------------------------------------------------| x7
				
                
C# |---------------------------------------------------------|
G# |---------------------------------------------------------|
E  |-----------------------------------------7/9--9--9-------|
B  |-----------------------------------------7/9--9--9-------|
F# |-----------------------------------------5/7--7--7-------|
C# |---5-4-5-4-5-4---0---5-4-5-4-5-4---0---------------------| x6

This is played before “Time waits for no one” and only this time.
C# |---------------------------------------------------------|
G# |---------------------------------------------------------|
E  |-----------------7----------9---9------------------------|
B  |-----------------7----------9---9------------------------|
F# |----2------------5----------7---7------------------------|
C# |----0------0---------0-----------------------------------|

Repeat the Verse then end with this
C# |---------------------------------------------------------|
G# |---------------------------------------------------------|
E  |---------------------------------------------------------|
B  |---------------------------------------------------------|
F# |---2--2----2--2--2---------------------------------------|
C# |---0--0----0--0--0----0--0-----12\\----------------------|
     [PALM MUTED-----------------------]
                   
PRE-SOLO:
C# |---------------------------------------------------------|
G# |---------------------------------------------------------|
E  |---------------------------------------------------------|
B  |----------------5-----------7b--5----7---5---------------|
F# |---7---7--7--------7--7-----------------------7----------|
C# |---0---------------------------------------------0-------|

C# |---------------------------------------------------------|
G# |---------------------------------------------------------|
E  |---9---7-------7-----------------------------------------|
B  |------------9-------9---5----7b--5----7---5--------------|
F# |-----------------------------------------------7---------|
C# |-----------------------------------------------0---------|

SOLO:
RHYTHM GUITAR:
C# |---------------------------------------------------------|
G# |---------------------------------------------------------|
E  |---------------------------------------------------------|
B  |---------------------------------------------------------|
F# |---2---2-----2--2--2---7---5---5-----------2-------------|
C# |---0---0-----0--0--0--------------7-----7----3----0------|  x5
       [PALM MUTED-----]              

C# |---------------------------------------------------------|
G# |---------------------------------------------------------|
E  |---------------------------------------------------------|
B  |---------------------------------------------------------|
F# |---2---2---2----5----2---2---2---2---2----5-----2--------|
C# |---0---0---0----3----0---0---0---0---0----3-----0--------|
       [PALM MUTED----------------------------------]

C# |---------------------------------------------------------|
G# |---------------------------------------------------------|
E  |---------------------------------------------------------|
B  |---------------------------------------------------------|
F# |----7---5--------5---------------2-----------------------|
C# |-------------7---------7----3----0-----------------------|

OUTRO:
C# |---------------------------------------------------------|
G# |---------------------------------------------------------|
E  |---------------------------------------------------------|
B  |----------------5-----------7b--5----7---5---------------|
F# |---7---7--7--------7--7-----------------------7----------|
C# |---0---------------------------------------------0-------|

C# |---------------------------------------------------------|
G# |---------------------------------------------------------|
E  |---9---7-------7-----------------------------------------|
B  |------------9-------9---5----7b--5----7---5--------------|
F# |-----------------------------------------------7---------|
C# |-----------------------------------------------0---------|

C# |---------------------------------------------------------|
G# |---------------------------------------------------------|
E  |---------------------------------------------------------|
B  |---9----8-----9\\----------------------------------------|
F# |---9----8-----9\\-----2----2-----------------------------|
C# |---7----6-----7\\-----0----0-----------------------------|
                         [PALM MUTED]

C# |---------------------------------------------------------|
G# |---------------------------------------------------------|
E  |---------------------------------------------------------|
B  |---9----8-----9\\----------------------------------------|
F# |---9----8-----9\\-----2--2--2--2--2--2--2--2-------------|        
C# |---7----6-----7\\-----0--0--0--0--0--0--0--0-----3~~~~~~-|
comments
We did not receive enough feedback on this tab! Please rate:
print report bad tab
1 2 3 4 5
I want to post or [tab]
guest
You may want to rate the tab now too:
select rating
Please do not post tabs as comments. Select "correction" instead!