Oops, an error
Loading. Please wait.

Clean My Wounds Bass Tab

version 1
version 1

Whole song

Interactive

5,507 views 3 this week
no commentswrite comment
1 2 3 4 5
2 more votes to show rating
add to favorites
launch autoscroll
font size
0
reset
guitar tuner
Autoscroll
slow
fast
+/-
esc
set tempo
stop
Help us to improve Ultimate-Guitar.com Take our survey!
×
#----------------------------------PLEASE NOTE---------------------------------#
#This file is the author's own work and represents their interpretation of the #
#song. You may only use this file for private study, scholarship, or research. #
#------------------------------------------------------------------------------##
Date: Thu, 31 Aug 1995 10:31:12 +0600
From: acanterb@vt.edu (JazzBass)
Subject: Clean My Wounds BTAB (Corrosion of Conformity)

"Clean My Wounds" by Corrosion of Conformity
>From June, 1995 Guitar Magazine

Tune down 1 whole step (D,G,C,F)

  gtr intro
F:--------------|
C:--|===3===|---|
G:--------------|
D:--------------|


F:---------------------------------------------------------------------------|
C:---------------------------------------------------------------------------|
G:--12\----------------------------------------------------------------------|
D:--------5--r--8-8-8-8---r--3-3-3-3---r--0-3-3-3--5---r--8-8-8-8--r--10-10-1|

             
F:----------|
C:----------|
G:----------|
D:0-10---R--|


 (SIGN)

F:---------------------------------------------------------------------------|
C:*--------------------------------------------------------------------------|
G:*--------------------------------------------------------------------------|
D:---5---r--8-8-8-8--r--3-3-3-3--r--r--0-3-3-3--5--r--8-8-8-8--r--10-10-10-10|


F:---------------------------------------------------------------------------|
C:---------------------------------------------------------------------------|
G:---------------------------------------------------------------------------|
D:---R--r--5----r--8-8-8-8--r--3-3-3-3--r--r--0-3-3-3--5----r--8-8-8-8--r--10|


F:---------------------------------------------------------------------------|
C:---------------------------------------------------------------------------|
G:---------------------------------------------------------------------------|
D:-10-10-10--R--r--5--r--8-8-8-8--r--3-3-3-3---r--r--0--3-3-3-5---r--8-8-8-8-|


F:---------------------------------------------------------------------------|
C:---------------------------------------------------------------------------|
G:---------------------------------------------------------------------------|
D:-r--10-10-10-10---R--r--5----r--8-8-8-8--r--3-3-3-3--r--r--0--3-3-3--5---r-|


F:---------------------------------------------------------------------------|
C:---------------------------------------------------------------------------|
G:---------------------------------------------4--5--7--3--------------------|
D:-8-8-8-8---r--10-10-10-10---R--r--10-\----5--------------0--1--3--3--3-----|
                                                                       ~~~~~~

F:---------------------------------------------------------------------------|
C:---------------------------------------------------------------------------|
G:-------5--5-----4--5--7--3--3--3--5--5--3h5---------5--3-----------4--5--6-|
D:----0--------5----------------------------~~~~~~~~--------5--0--5----------|
  ~~

                                   |TO CODA
                                   |                             
F:--------------------------------------------------------------|
C:--------------------------------------------------------------|
G:-7----------------------------5--5-----4--5--7--3-------------|
D:----0--1--2--3--3--3-------0--------5--------------0--1--3/5--|
                     ~~~~~~~

   1.
  |~~~~~~~~~~~~~~~~~~~~~~~~~~~~~~~~~~~~~~~~~~~~~~~~~~~~~~~~~~~~~~~~~~~~~~~~~~
F:---------------------------------------------------------------------------|
C:---------------------------------------------------------------------------|
G:-5------5--5-5-5--5--3-----------------------------------------------------|
D:-~~~~~~-----------------3--5--r--8-8-8-8--r--3-3-3-3---r--r--0-3-3-3-5---r-|

                                                                   
                                       2.                          
  ~~~~~~~~~~~~~~~~~~~~~~~~~~~~~~~~~~~ |~~~~~~~~~~~~~~~~~~~~~~~~~
F:-----------------------------------|----------------------------|
C:----------------------------------*|----------------------------|
G:----------------------------------*|--5------5--5-5-5--5--3-----|
D:-8-8-8-8---r--10-10-10-10--R--r----|--~~~~~~-----------------3--|



  Guitar Solo
                                                                       
F:--------------------------------------------------------------------|
C:*-------------------------------------------------------------------|
G:*-------------------------------------------------------------------|
D:---5--r--8-8-8-8--r--3-3-3-3---r--r--0--3-3-3--5--r--8-8-8-8--r--10-|


                                         DS.AL          
   1.-4.                   5.             CODA
  |~~~~~~~~~~~~~~~~~~~   |~~~~~~~~~~~~~~~
F:----------------------|-------------------|----------|
C:---------------------*|-------------------|----------|
G:---------------------*|-------------------|----------|
D:-10-10-10---R---r-----|--10-10-10---R---r-|----------|


  (CODA)

F:--------------------------7--7-7-7--7-7--5---------------------------------|
C:-----------------5--6--7--------------------7--5---------------------------|
G:-----4--5--6--7--------------------------------------4--5--6--7------------|
D:--5-----------------------------------------------5--------------0--1--2--3|


F:----------------------------------------------7--7-7-7--7--7--7--7-5-------|
C:-------------------------------------5--6--7--~~-----~~-~~-~~---------7--5-|
G:----------------5--5-----4--5--6--7----------------------------------------|
D:--3--3-------0--------5----------------------------------------------------|
       ~~~~~~~

F:----------------------------------------------------------------------7--7-|
C:---------------------------------------------------------------------------|
G:----4--5--6--7-----------------2--3--5--6-----4--5--6--7-----------5-------|
D:-5--------------0--1--3--3--3--------------5--------------0--1--2----------|


F:7--7-7--7-7--5-------------------------------------------------------------|
C:----------------7--5-------------------------------------------------------|
G:---------------------------4--5--7--------------------2---2--3--4--5-----4-|
D:----------------------5-------------0--1--2--3--3--3------------------5----|


F:---------------------------------------------------------------------------|
C:---------------------------------------------------------------------------|
G:-5--6--3----------5--5-5--5--5--5-5--3-----------4--5--3--3--3-------------|
D:------------3--0------------------------5--3--5-----------------0-1--3--3--|


F:---------------------------------------------------------------------------|
C:--------------------------------5------------------------------------------|
G:--------------------4--5--6--3-----3--0--5--5-5--5-5--5-5--5--3------------|
D:3--3----0--3--3--5-----------------------------------------------5--3--5---|


F:--------------------------|
C:--------------------------|
G:----3--3---r--------------|
D:-r------------0--3-3-3-3-3|



+----------------------------------------+---------------------------------+ 
|  ____    ____                          |         acanterb@vt.edu         |
| (    `--'  .-'               _T_T_T_T_ |  ___                 __         |
| |8| O  O  |||||||||||||||||||[o o o o/ | /   \  |   | |\  /| |  | \   /  |
| (__,--.____\                 `~~~`--'  | |  ___ |   | | \/ | |--+. \ /   |
|                                        | \____| |___| |    | |___|  |    |
|    Bassist for some unnamed band       |                                 |
|                                        |                                 |
+----------------------------------------+---------------------------------+



Suggest correction
Give kudos to tab author, rate the tab!
1 2 3 4 5
comments
print report bad tab
guest
You may want to rate the tab now too:
select rating
Wanna post a correction for this tab? Suggest correction