Oops, an error
Loading. Please wait.

Clean My Wounds Tab

version 2
version 2

Whole song

Interactive

10,068 views 18 this week
no commentswrite comment
1 2 3 4 5
1 last vote to show rating
add to favorites
launch autoscroll
font size
0
reset
how to read this tab
guitar tuner
Autoscroll
slow
fast
+/-
esc
set tempo
stop
Help us to improve Ultimate-Guitar.com Take our survey!
×
Author
Difficulty
novice
//----CLEAN MY WOUNDS
//----As recorded by Corrosion Of Conformity
//----(From the Album DELIVERANCE)

Transcribed by deadlyMETAL

So this is another great song. Not difficult to play, but make sure the tuning
is correct. NOTE: This can be played in Drop-D tuning instead of D Standard,
but it's all how you want to play it. I've only tabbed it for D Standard, I
believe this is what Corr. of Con. uses to play it. I haven't tabbed out the
solo, because I cannot play it myself, and it isn't a straight-through tab;
I've inserted pointers as to what to play and when to save space and printing
ink in case you print this out. :D Tab note: pay attention to lowercase letters:
they stand for staccato notes, but much of it is palm muted(although not noted,
sorry!!)
Gtr I (D G C F A D) - 'Rhythm Guitar w/ Distortion'
Gtr II (D G C F A D) - 'Filler Rhythm Guitar w/ Distortion'

   Intro Riff - GTR One(& Two on 2nd time)
    Q=150(approx.)
   4/4
    Gtr I
    Q.   e S S q  e   S S h    e S S S S
||---emphasis-on----|--------------------|
||o---treble-and-mid|range-for-1st-time--|
||------------------|--------------------|
||--7---------------|--------------------|
||o-7---------------|--------------------|
||--5----8-8-8-8--3-|-3-3-3----0-3-3-3-3-|
|
|   Gtr II - 2nd time only
|   Q.   e S S q  e   S S h    e S S S S
||------------------|--------------------|
||o-----------------|--------------------|
||------------------|--------------------|
||--7---------------|--------------------|
||o-7---------------|--------------------|
||--5----8-8-8-8--3-|-3-3-3----0-3-3-3-3-|


  Q.   e S S q  e    S  S  q  E H
|-----------------|-------------------||
|-----------------|------------------o||
|-----------------|-------------------||
|-7---------------|-------------------||
|-7---------------|------------------o||
|-5----8-8-8-8--8-|-10-10-10----------||
|
| Q.   e S S q  e    S  S  q  E H
|-----------------|-------------------||
|-----------------|------------------o||
|-----------------|-------------------||
|-7---------------|-------------------||
|-7---------------|------------------o||
|-5----8-8-8-8--8-|-10-10-10----------||


   Verse - GTR One & Two
    Gtr I
    Q.   e S S q  e   S S h    e S S S S
||------------------|--------------------|
||o-----------------|--------------------|
||------------------|--------------------|
||--7---------------|--------------------|
||o-7---------------|--------------------|
||--5----8-8-8-8--3-|-3-3-3----0-3-3-3-3-|
|
|   Q.   e S S q  e   S S h    e S S S S
||------------------|--------------------|
||o-----------------|--------------------|
||--2---------------|--------------------|
||--2---------------|--------------------|
||o-0---------------|--------------------|
||-------8-8-8-8--3-|-3-3-3----0-3-3-3-3-|


  Q.   e S S q  e    S  S  q     E  H      4x
|-----------------|------------------------||
|-----------------|-----------------------o||
|-----------------|------------------------||
|-7---------------|------------------------||
|-7---------------|-----------------------o||
|-5----8-8-8-8--8-|-10-10-10---------------||
|
| Q.   e S S q  e    Q        E  E  H      4x
|-----------------|-This-bar-isn't-played--||
|-----------------|-every-time.-Listen----o||
|-----------------|-to-recording!----------||
|-7---------------|----------------10\-----||
|-7---------------|-----------------8\----o||
|-5----8-8-8-8--8-|----------10-12---------||

(Note: the bar before the chorus ^^^^
changes to a slide down the neck from the 12th
fret range before going into the chorus below.)

   Chorus - GTR One & Two
    Gtrs I, II
    Q.    E  Q  E  E   E E Q.   E E E
||-------------------|----------------|
||o------------------|----------------|
||-------------------|----------------|
||-------------------|----------------|
||o-7----10-10-10S=5-|-5-5-5------5-7-|
||--5-----8--8--8S=3-|-3-3-3----0-3-5-|


  Gtrs I, II
  Q.    E  Q.    E    E  E  H     Q
|------------------|-------------------||
|------------------|------------------o||
|------------------|-------------------||
|------------------|-------------------||
|-7----10-10----12-|-12-12-12----12\--o||
|-5-----8--8----10-|-10-10-10----10\---||

Play Verse 5 times (pay attention to recording,
some bars change!!) then come back to chorus.
Next comes the solo- play verse under that.
After the solo comes verse again, followed by
chorus once more. Chorus is played 4 times,
then the vocalist comes in with the "Knock-
it-down"s and one of the guitars does a short
solo over the 5th and 6th repeated chorus, and
the song closes out with all guitars (if more
than two) with...

 End - GTR One & Two
  Gtrs I, II
  Q.    E  Q.   E   S S S S e E H
|-----------------|------------------*|
|-----------------|-----------r------*|
|-----------------|------------e-----*|
|-7----10-10------|-------------s----*|
|-7----10-10------|--------------t---*|
|-5-----8--8----8-|-3-3-3-3-3--------*|

Hope it was good! deadlyMETAL86@gmail.com
Suggest correction
Give kudos to tab author, rate the tab!
1 2 3 4 5
comments
print report bad tab
guest
You may want to rate the tab now too:
select rating
Wanna post a correction for this tab? Suggest correction