Oops, an error
Loading. Please wait.

Clean My Wounds Tab

version 4
version 4

Intro

Whole song

Interactive

3,202 views 15 this week
no commentswrite comment
1 2 3 4 5
excellent!
x 2
add to favorites
launch autoscroll
font size
0
reset
how to read this tab
guitar tuner
Tab Pro tools
  • play this tab
  • loop segment
  • change instrument
  • show fretboard
  • metronome
Autoscroll
slow
fast
+/-
esc
set tempo
stop
Contributor
Difficulty
Tuning
intermediate
D A D G B E
Artist:Corrosion Of Conformity.
Song:Clean My Wounds.
Tuning:Drop D.
Tab:Lopez017.


  Guitar 1
 E |-----------------------------------------------------------------|
 B |-----------------------------------------------------------------|
 G |-----------------------------------------------------------------|
 D |---5-----------------------------5-------------------------------|
 A |---5-----------------------------5-------------------------------|
 D |---5---8-888---3-333-----0-333---5---8-888---10-101010-----------|
                                                    ^these are 10's
  Guitar 2
 E |-----------------------------------------------------------------|
 B |-----------------------------------------------------------------|
 G |-----------------------------------------------------------------|
 D |---8-----------------------------8-------------------------------|
 A |-----------------------------------------------------------------|
 D |-----------------------------------------------------------------|
       I see the world...             Streets filled with blood...
       Help me Jesus...               He said he cannot...
Every couple of times through the main riff they add one of these to
the end:

 E |------------------------|
 B |------------------------|
 G |------------------------|
 D |---10/12-13-------------|
 A |---10/12-13-------------|
 D |------------------------|

The chorus follows the same basic pattern as the main riff:

 E |-------------------------------------------------------------------|
 B |-------------------------------------------------------------------|
 G |-------------------------------------------------------------------|
 D |---5--5/8-8-83-3---5--5/8--8--8/10-10-10---------------------------|
 A |---5--5/8-8-83-3---5--5/8--8--8/10-10-10---------------------------|
 D |---5--5/8-8-83-3---5--5/8--8--8/10-10-10---------------------------|
       Knock it down...  Knock it down...
             That's how..              In a land ...

They alternate between the main part and the chorus a couple of times
before they go into the solo.

The main riff continues behind the solo, broken up here into the two
main parts:

Solo - Part 1
 E |-----------------------------------------------------------|
 B |-----------------------------------------------------------|
 G |-/7--7h8-7--7h8-75-5----5/7-7-7-7h8-8b10r8-8p7p5-5h7-5-----|
 D |-----------------------------------------------------------|
 A |-----------------------------------------------------------|
 D |-----------------------------------------------------------|

 E |-6p5-5------------------------------------------|
 B |-------8p6-6----------------6-6h8-6-6h8-65-5----|
 G |-------------7p5-5-5h7-5----7-7h8-7-7h8-75-5----|
 D |------------------------------------------------|
 A |------------------------------------------------|
 D |------------------------------------------------|
                               {---two guitars------|

Part 2

 E |------------------------------------------------|
 B |------------------------------8---6-------------|
 G |-----0h3-------/5--3h5p3-2------3----2--0-------|
 D |-0h3-----5--------------------------------3-2---|
 A |------------------------------------------------|
 D |------------------------------------------------|

 E |----------------------------------------------|
 B |-------3-3h4-3--3h4-3-4/6-4h6-6/8-6-----------|
 G |-0h3-5--------5---------------------8p7p5-----|
 D |----------------------------------------------|
 A |----------------------------------------------|
 D |----------------------------------------------|

 E |---------------------------------------------------------------|
 B |-----6-----6---6---6---6---6---8-8h11p8---------8--------------|
 G |-/7-7-7p6h7-6h7-6h7-6h7-6h7-------------10------10b12----------|
 D |-------------------------------------------12------------------|
 A |---------------------------------------------------------------|
 D |---------------------------------------------------------------|
                                                    |--let ring....
For the end of the part above, hit the G and B strings at 10 and 8 at
the same time, letting the B ring, and bending the G up a whole step so
it becomes the same pitch as the B string (make sense?).

After the solo, there's one of these:
 E |-----------------|
 B |-----------------|
 G |-----------------|
 D |---10/12-13------|  and then it goes back into the main part of the
 A |---10/12-13------|  song again.("twist of fate won't give me... ")
 D |-----------------|

Before the song ends, it goes back to the chorus part again ("oh fadin'
... knock it down...") to close out the song, with part 1 of the solo
behind it.

That's it... Comments and suggestions are more than welcome.  I know
the solos may be kinda rough, but then again, Pepper's playing is kinda
sloppy anyway in the solos. :) Have fun...

---------------------------------------------------------------------------------

Tune all guitars down a full step (D F G C A D)

INTRO  PM------------------------------------------|
F.-------------------------------------------------|
A.-------------------------------------------------|
D.-------------------------------------------------|
C.--7----------------------------------------------|
G.--7----------------------------------------------|
D.--5---8--8--8--8----3--3--3--3----0--3--3--3-----|

    PM--------------------------------------------|
F.------------------------------------------------|
A.------------------------------------------------|
D.------------------------------------------------|
C.--7---------------------------------------------|
G.--7---------------------------------------------|
D.--5---8--8--8--8---10--10--10--10---------------|

CHORUS
  Knock it down.....
F.------------------------------------------------|
A.------------------------------------------------|
D.------------------------------------------------|
C.------------------------------------------------|
G.--7---10---10---10---5---5---5-------5----------|
D.--5---8----8----8----3---3---3---0---3---0------|


GUITAR SOLO

F.-----------------------------------------------------------------|
A.-----------------------------------------------------------------|
D.--9---9-h--10p--9----9-h--10p--9---7--7---5/-9---9---9---10--10b-|
C.--10--10h--12p--10---10h--12p--10--9--9---7/-10--10--10--12--12b-|
G.-----------------------------------------------------------------|
D.-----------------------------------------------------------------|

F.---------------------------10b--8--8-b--7---------------------|
A.---------------------------10b--8--10b--8--10--8--------------|
D.--10p--9-h--7---7h--9p--7-----------------9---7--9--5h--7p--5-|
C.--12p--10h--12--7h--9p--7------------------------9--5h--7p--5-|
G.--------------------------------------------------------------|
D.--------------------------------------------------------------|

F.-----------------------------------------------------------------|
A.-----------------------------------------------------------------|
D.--9---9---10--12---12h--14p--12--12-11-------2h-5--2--4h--5/-7---|
C.--10--10--12--10---10h--12p--10--9--7---2h-5---------------------|
G.-----------------------------------------------------------------|
D.-----------------------------------------------------------------|

F.------------------------------------------------------------------|
A.-------------------------8----------------------------5h-6p-5-----|
D.--5h--7p--5-/4--/14-5-----4-------------------5--7-----------7----|
C.-------------------------------7--5--4---5h--7--------------------|
G.------------------------------------------------------------------|
D.------------------------------------------------------------------|

F.-----------------------------------------------------------------|
A.--5h--6h--8p--5h--6--8--8--6--5--------5--8--5-----8p-5-----5h-8p|
D.---------------------------------7--7b----------8--------8-------|
C.-----------------------------------------------------------------|
G.-----------------------------------------------------------------|
D.-----------------------------------------------------------------|

F.------------------------------------------5p-0h-5p-0h-5p-0h-5p--5--8--|
A.--5-----8--5-----5---8--5---5h-8p-5h-8p-5h---------------------8b-----|
D.-----8--------8-----------8-------------------------------------------|
C.----------------------------------------------------------------------|
G.----------------------------------------------------------------------|
D.----------------------------------------------------------------------|

F.--5-------------5b-----|
A.-----8--5--5----8b-----|
D.-----------------------|
C.-----------------------|
G.-----------------------|
D.-----------------------|
comments
We did not receive enough feedback on this tab! Please rate:
print report bad tab
1 2 3 4 5
I want to post or [tab]
guest
You may want to rate the tab now too:
select rating
Please do not post tabs as comments. Select "correction" instead!