Oops, an error
Loading. Please wait.

Dance Of The Dead Tab

version 2
version 2

Whole song

2,646 views 6 this week
no commentswrite comment
1 2 3 4 5
excellent!
x 8
add to favorites
launch autoscroll
font size
0
reset
how to read this tab
guitar tuner
Autoscroll
slow
fast
+/-
esc
set tempo
stop
Help us to improve Ultimate-Guitar.com Take our survey!
×
Author
Difficulty
intermediate
-----------------------------------------------------------------------------
                             Dance of the Dead - Corrosion of Conformity
-----------------------------------------------------------------------------

Tuning: E A D G B E




 Intro 
 
  Guitar 1 
  {---------PM-----------} 
E-------------------------------------------| 
B-------------------------------------------| 
G-------------------------------------------| 
D-------------------------------------------| 
A-2-2-2-2-2-2-2-2-2-2-2-2/7--7-7/10-10/12---| 
E-0-0-0-0-0-0-0-0-0-0-0-0/5--5-5/8--8-/10---| 
 
  Guitar 1 
  {---------PM-----------} 
E{-------------------------------------------| 
B{-------------------------------------------| 
G{-------------------------------------------| 
D{-------------------------------------------| 
A{-2-2-2-2-2-2-2-2-2-2-2-2/5--5-5/7--7\------| 
E{-0-0-0-0-0-0-0-0-0-0-0-0/3--3-3/5--5\------| 
 { Guitar 2 
E{-------------------------------------------| 
B{-------------------------------------------| 
G{-------------------------------------------| 
D{-------------------------------------------| 
A{-----------------------------------7\------| 
E{-----------------------------------5\------| 
 
  Guitar 1 
  {---------PM-----------} 
E{-------------------------------------------| 
B{-------------------------------------------| 
G{-------------------------------------------| 
D{-------------------------------------------| 
A{-2-2-2-2-2-2-2-2-2-2-2-2/7--7-7/10-10/12---| 
E{-0-0-0-0-0-0-0-0-0-0-0-0/5--5-5/8--8-/10---| 
 { 
 {Guitar 2 
E{-------------------------------------------| 
B{-------------------------------------------| 
G{-------------------------------------------| 
D{-------------------------------------------| 
A{-2---------(2)----------/7-----/10---/12---| 
E{-0---------(0)----------/5-----/8----/10---| 
 
  Guitar 1 
  {---------PM-----------} 
E{-------------------------------------------| 
B{-------------------------------------------| 
G{-------------------------------------------| 
D{-------------------------------------------| 
A{-2-2-2-2-2-2-2-2-2-2-2-2/5--5-5/7--7\------| 
E{-0-0-0-0-0-0-0-0-0-0-0-0/3--3-3/5--5\------| 
 { Guitar 2 
E{-------------------------------------------| 
B{-------------------------------------------| 
G{-------------------------------------------| 
D{-9----------(9)----------------------------| 
A{-7----------(7)-----------5----/7----------| 
E{-0----------(0)-----------3----/5----------| 
 
  
 
 Chorus Riff 
 
  Trem dip             Trem dip 
E----------------------------------------------| 
B----------------------------------------------| 
G----------------------------------------------| 
D-9----9---------------9-----9---------7--7----| 
A-7----7--7----5---5---7-----7---5--5--5--5----| 
E---------5----3---3-0-----------3--3----------| 
 
 Verse 
   {----------PM------------} 
E--------------------------------------------| 
B--------------------------------------------| 
G--------------------------------------------| 
D-3/5-5-5-5-5-5-5-5-5-5-5-5-x/8-8-8/1010-8\7-| 
A-1/3-3-3-3-3-3-3-3-3-3-3-3-x/6-6-6/8-8--6\5-| 
E--------------------------------------------|Rpt 
 
  {-----------PM-----------} 
E---------------------------------------| 
B---------------------------------------| 
G---------------------------------------| 
D---------------------------5----3----3-| 
A-3/5-5-5-5-5-5-5-5-5-5-5-5-3----1----1-| 
E-1/3-3-3-3-3-3-3-3-3-3-3-3-------------|Rpt 
  
 Additional lead  
         ~~~~~~~~~~~~~~~~~~~to Feed back 
E---------------------------------------| 
B---------------------------------------| 
G----10-12---------(12)-----------------| 
D-12------------------------------------| 
A---------------------------------------| 
E---------------------------------------| Rpt 
 
 Rpt Intro riffs with additional lead 
  ~~~~~~~~~~~~~~To feedback~~~~~~~  ~~~~~~~~~~~~~~~~To feedback~~~~~ 
E-------------------------------------------------------------------| 
B-------------------------------------------------------------------| 
G----------------------------------/9----------------(9)------------| 
D-7-----------(7)-----------------7---------------------------------| 
A-------------------------------------------------------------------| 
E-------------------------------------------------------------------| 
                                                              Rpt 
 
 Rpt Chorus Riffs with additional guitar 
  
  Guitar 1 
  Trem dip             Trem dip 
E{--------------------------------------------| 
B{--------------------------------------------| 
G{--------------------------------------------| 
D{-9----9---------------9----9--------7--7----| 
A{-7----7--7----5---5---7----7--5--5--5--5----| 
E{---------5----3---3-0---------3--3----------| 
 { 
 {Guitar 2  
E{--------------------------------------------| 
B{--------------------------------------------| 
G{--------------------------------------------| 
D{-7--9-9---------------7--9-9--------7-------| 
A{--------------------------------------------| 
E{--------------------------------------------| 
 
 Rpt structure for 2nd verse and backing for guitar solo. 
 Rpt Chorus 
 
 {----------PM----------} 
E---------------------------------------| 
B---------------------------------------| 
G---------------------------------------| 
D-2-2-2-2-2-2-2-2-2-2-2-2---5-5---7-7-7-| 
A-0-0-0-0-0-0-0-0-0-0-0-0---3-3---5-5-5-| 
E-------------------------0-----0-------|Rpt 4 X 
 
 Rpt Chorus to fade. 
 
 
 
 
 

 
 

Suggest correction
comments
print report bad tab
guest
You may want to rate the tab now too:
select rating
Please do not post tabs as comments. Select "correction" instead!