Oops, an error
Loading. Please wait.

Echoes In The Well Tab

595 views 3 this week
no commentswrite comment
1 2 3 4 5
3 more votes to show rating
add to favorites
launch autoscroll
font size
0
reset
how to read this tab
guitar tuner
Autoscroll
slow
fast
+/-
esc
set tempo
stop
Help us to improve Ultimate-Guitar.com Take our survey!
×
Band- Corrosion Of Conformity
Song- Echoes In The Well

TUNING: Drop D Tuning and 1 whole step down (C)

INTRO:
Bass Riff played for INTRO and Most of song
G |----------------------------------------------------------|
D |----------------------------------------------------------|
A |--5----5-----5-----5----8--8----5---5----5---5---8---8----|
D |----0----0-----0-----0-------0----0---0----0---0---0---0--|

VERSE:
d |---\\\\\--------------------------------------------------|
A |---\\\\\--------------------------------------------------|
F |---\\\\\--------------------------------------------------|
C |---\\\\\-----0-------3b---0------3b---0-------3b----------|
G |---\\\\\-----0-------3b---0------3b---0-------3b----------|
C |---\\\\\-----0-------3b---0------3b---0-------3b----------|
      [SLIDE DOWN]  
The SLIDE DOWN is only played for that first and one time
                                                                
CHORUS:
d |----------------------------------------------------------|
A |----------------------------------------------------------|
F |----------------10----12----12----12b----10---------------|
C |---7---8---8\7-------------------------------12-----------|
G |---7---8---8\7--------------------------------------------|
C |---7---8---8\7--------------------------------------------|
  
INTERLUDE/RYTHYM GUITAR FOR 1ST SOLO:
d |----------------------------------------------------------|
A |----------------------------------------------------------|
F |----------------------------------------------------------|
C |--3---2---1---0-------------------------------------------|
G |--3---2---1---0-------------------------------------------|
C |--3---2---1---0-------------------------------------------|
                                                                        
d |----------------------------------------------------------|
A |----------------------------------------------------------|
F |----------------------------------------------------------|
C |---2p0--2--2--2---2--0--2--0--2--3------------------------|
G |---2p0--2--2--2---2--0--2--0--2--3------------------------|
C |---2p0--2--2--2---2--0--2--0--2--3------------------------|
Played after 1st SOLO then

OUTRO:
d |----------------------------------------------------------|
A |----------------------------------------------------------|
F |----------------------------------------------------------|
C |--5p0--5--5--5---5--0--5--0--5--6--6----------------------|
G |--5p0--5--5--5---5--0--5--0--5--6--6----------------------|
C |--5p0--5--5--5---5--0--5--0--5--6--6----------------------|

That’s all I have for now.  There’s a lot of noise in this one,
not too mention a lot of lead especially in the OUTRO.  This is
a start though.  Any questions or comments are welcomed.
Suggest correction
Give kudos to tab author, rate the tab!
1 2 3 4 5
comments
print report bad tab
guest
You may want to rate the tab now too:
select rating
Wanna post a correction for this tab? Suggest correction