Oops, an error
Loading. Please wait.

Great Purification Tab

612 views 1 this week
no commentswrite comment
1 2 3 4 5
2 more votes to show rating
add to favorites
launch autoscroll
font size
0
reset
how to read this tab
guitar tuner
Autoscroll
slow
fast
+/-
esc
set tempo
stop
Help us to improve Ultimate-Guitar.com Take our survey!
×
Band- Corrosion Of Conformity
Song- Great Purification

TUNING: Tune 1 whole step down (D)

INTRO:
d |--------------------------------------------------------------------|
A |--------------------------------------------------------------------|
F |--------------------------------------------------------------------|
G |---------------------------------2----------------------------------|
C |-8-7--8-7--7-5--7-5--------------2----------------------------------|
D |--------------------7-6--7-6--3--0----------------------------------|

VERSE:
d |--------------------------------------------------------------------|
A |--------------------------------------------------------------------|
F |--------------------------------------------------------------------|
G |-2h3p2-0-2p0----0-----2---2--2--2h3p2-0-2p0----0-----2---2--2-------|
C |-------------/2---1---2---2--2--------------/2---1---2---2--2-------|
D |--------------------3-0---0--0---------------------3-0---0--0-------|

d |--------------------------------------------------------------------|
A |--------------------------------------------------------------------|
F |--------------------------------------------------------------------|
G |-2-------2---------2-----2-------2-------2-2h3p2-0-2p0----0-----2---|
C |-2-------2---------2-----2-------2-------2-------------/2---1---2---|
D |-0-0-0-0-0-0-0-0-0-0-0-0-0-0-0-0-0-0-0-0-0--------------------3-0---|

CHORUS:
|----------------------------------------------------------------------|
|----------------------------------------------------------------------|
|----------------------------------------------------------------------|
|-7---7--7--8-5-5--7---7--7-8--5--7-7----7-7--8-5--7--7--7-7--8--5-2---|
|-7---7--7--8-5-5--7---7--7-8--5--7-7----7-7--8-5--7--7--7-7--8--5-2---|
|-5---5--5--6-3-3--5---5--5-6--3--5-5----5-5--6-3--5--5--5-5--6--3-0---|

INTERLUDE:
|----------------------------------------------------------------------|
|----------------------------------------------------------------------|
|----------------------------------------------------------------------|
|-2----------------2-----2-2---2-2------------2------------------------|
|-2----------------2-----2-2---2-2------------2------------------------|
|-0------/3--2--1--0-----0-0---0-0--/3--2--1--0------------------------|

 1st SOLO:
|----------------------------------------------------------------------|
|----------------------------------------------------------------------|
|------------------------12-14b-p12----12----12-14b--------------------|
|------------------12h14------------14----14----14b--------------------|
|-14~~~~~~~~~~~--------------------------------------------------------|
|----------------------------------------------------------------------|

|----------------------------------------------------------------------|
|----------14b--------------15b----------------------------------------|
|-------12-14b-p12----12----------------12-14b-14p12----12-------------|
|-12h14------------14----14-------x-/14----14b-------14----14----------|
|----------------------------------------------------------------------|
|----------------------------------------------------------------------|

|----------------------------------------------------------------------|
|------15b-----------14b-------------------14b-------------------------|
|-----------------12-14b-14p12----12----12-14b-------------------------|
|-12-14-----x-/14--------------14----14----14b-------------------------|
|----------------------------------------------------------------------|
|----------------------------------------------------------------------|

|-------------------------------/17b-17b-17\\---------------------------|
|----12h14-14b---------------------------------------------------------|
|----12h14-14b-p12----12----12/-----------------17\\--------------------|
|-14---------------14----14--------------------------------------------|
|------------------------------------------------------//14~~----------|
|----------------------------------------------------------------------|

|----------------------------------------------------------------------|
|------------15--15--15---15-------------------------------------------|
|------------14b-14b-14b--14p12----------------------------------------|
|----//14~~~--------------------12-14/---------------------------------|
|-\\--------------------------------------------------------------------|
|----------------------------------------------------------------------|
Suggest correction
Give kudos to tab author, rate the tab!
1 2 3 4 5
comments
print report bad tab
guest
You may want to rate the tab now too:
select rating
Wanna post a correction for this tab? Suggest correction