Oops, an error
Loading. Please wait.

Hungry Child Tab

version 1
version 1

Whole song

Interactive

438 views 1 this week
no commentswrite comment
1 2 3 4 5
2 more votes to show rating
add to favorites
launch autoscroll
font size
0
reset
how to read this tab
guitar tuner
Autoscroll
slow
fast
+/-
esc
set tempo
stop
Help us to improve Ultimate-Guitar.com Take our survey!
×
Author
Tuning
  follow
E A D G B E
Band- Corrosion of Conformity
Song- Hungry Child

TUNING: Standard Tuning

VERSE:
e |-----------------------------------------------------|
B |-----------------------------------------------------|
G |-----------------------------------------------------|
D |----------------------------------6/7----------------|
A |----7\4----------------4---4/5----4/5----------------|
E |----5\2---2--2--2--2---2---2/3-----------------------| x4
             [PALM MUTED]

CHORUS:
e |-----------------------------------------------------|
B |-----------------------------------------------------|
G |-----------------------------------------------------|
D |----------7/9-----9------10\9----7/9------9----------|
A |---7/9----5/7-----7-------8\7----5/7------7----------|
E |---5/7-----------------------------------------------|
             

Played after the last CHORUS riff:
e |-----------------------------------------------------|
B |-----------------------------------------------------|
G |-----------------------------------------------------|
D |--10\9--7/9-----9----12------------------------------|
A |---8\7--5/7-----7----10---10-10-10-10-10-10----------|
E |-----------------------------------------------------|
                             [PALM MUTED-----]

This is at the "...powerfully twisting..." part:
e |-----------------------------------------------------|
B |-----------------------------------------------------|
G |-----------------------------------------------------|
D |------------7/10--10—10------------------------------|
A |----7/9-----5/8---8---8------------------------------|
E |----5/7----------------------------------------------| x2

e |-----------------------------------------------------|
B |-----------------------------------------------------|
G |-----------------------------------------------------|
D |------------7/10--10--10----9------------------------|
A |----7/9-----5/8---8---8-----7------------------------|
E |----5/7----------------------------------------------|

This is at the "...we have life's meaning..." part:
e |-----------------------------------------------------|
B |-----------------------------------------------------|
G |-----------------------------------------------------|
D |-------9----------------------9----------------------|
A |-------7-----8--7--8----------7------7--8--7---------|
E |--0-0--------6--5--6-----0-0---------5--6--5---------|

e |-----------------------------------------------------|
B |-----------------------------------------------------|
G |-----------------------------------------------------|
D |-------9----------------------9-------------7--------|
A |-------7-----8--7--8----------7------7--8---5--------|
E |--0-0--------6--5--6-----0-0---------5--6------------|

OUTRO:
e |-----------------------------------------------------|
B |-----------------------------------------------------|
G |-----------------------------------------------------|
D |-----------------------------------------------------|
A |---7\4----7\4----------------------------------------|
E |---5\2----5\2----------------------------------------|
Suggest correction
Give kudos to tab author, rate the tab!
1 2 3 4 5
comments
print report bad tab
guest
You may want to rate the tab now too:
select rating
Wanna post a correction for this tab? Suggest correction